Cifras e Tablaturas
Brand New

Brand New

Could Never Be Heaven

Cifras Cancelar Versão de Impressão
cifras

Brand New - Could Never Be Heaven

fixar na tela  
Exibindo: vídeo-aula ver clipes redimensionar
  
 
Capo 4 

Intro 
  G1 
e|------------------------|------------------------|------------------------|------------------------| 
B|------------------------|------------------------|------------------------|------------------------| 
G|----0-----0-------------|----0-----0-------------|----0-----0-------------|----0-----0-------------| 
D|--2-----2-------0-------|--2-----2-------0-------|--2-----2-------0-------|--2-----2-------0-------| 
A|0-----3-------2-----2p0-|0-----3-------2-----2p0-|0-----3-------2-----2p0-|0-----3-------2-----2p0-| 
E|------------3-----0-----|------------3-----0-----|------------3-----0-----|------------3-----0-----| 

Verse 

e|------------------------|------------------------|------------------------|------------------------| 
B|------------------------|------------------------|------------------------|------------------------| 
G|----0-----0-------------|----0-----0-------------|----0-----0-------------|----0-----0-------------| 
D|--2-----2-------0-------|--2-----2-------0-------|--2-----2-------0-------|--2-----2-------0-------| x2 
A|0-----3-------2-----2p0-|0-----3-------2-----2p0-|0-----3-------2-----2p0-|0-----3-------2-----2p0-| 
E|------------3-----0-----|------------3-----0-----|------------3-----0-----|------------3-----0-----| 

Chorus 

e|------------------------|------------------------|------------------------|------------------------| 
B|------------------------|------------------------|------------------------|------------------------| 
G|----------------------0-|----------------------0-|----------------------0-|----0-------------------| 
D|----3-----0---------2---|----3-----0---------2---|----3-----0---------2---|--2-------------3-----0-| 
A|--3-----2-----2p0-0-----|--3-----2-----2p0-0-----|--3-----2-----2p0-0-----|3-----2-3p2---3-----2---| 
E|1-----3-----0-----------|1-----3-----0-----------|1-----3-----0-----------|------------1-----3-----| 

e|------------------------|------------------------| 
B|------------------------|------------------------| 
G|----0-----0-------------|----0-----0-------------| 
D|--2-----2-------0-------|--2-----2-------0-------| 
A|0-----3-------2-----2p0-|0-----3-------2-----2p0-| 
E|------------3-----0-----|------------3-----0-----| 

Verse 
  w/ delay 
e|------------------------|------------------------|------------------------|------------------------| 
B|1---1---1-1-1p0---------|1---1---1-1-1p0---------|1---1---1-1-1p0----/3---|1---1---1-1-1p0---------| 
G|------------------------|------------------------|------------------------|------------------------| 
D|------------------------|------------------------|------------------------|------------------------| 
A|------------------------|------------------------|------------------------|------------------------| 
E|------------------------|------------------------|------------------------|------------------------| 
 | 
e|------------------------|------------------------|------------------------|------------------------| 
B|------------------------|------------------------|------------------------|------------------------| 
G|----0-----0-------------|----0-----0-------------|----0-----0-------------|----0-----0-------------| 
D|--2-----2-------0-------|--2-----2-------0-------|--2-----2-------0-------|--2-----2-------0-------| 
A|0-----3-------2-----2p0-|0-----3-------2-----2p0-|0-----3-------2-----2p0-|0-----3-------2-----2p0-| 
E|------------3-----0-----|------------3-----0-----|------------3-----0-----|------------3-----0-----| 


e|------------------------|------------------------|------------------------|------------------------| 
B|1---1---1-1-1p0---------|1---1---1-1-1p0---------|1---1---1-1-1p0----/3---|1-------/5---3----------| 
G|------------------------|------------------------|------------------------|------------------------| 
D|------------------------|------------------------|------------------------|------------------------| 
A|------------------------|------------------------|------------------------|------------------------| 
E|------------------------|------------------------|------------------------|------------------------| 
 | 
e|------------------------|------------------------|------------------------|------------------------| 
B|------------------------|------------------------|------------------------|------------------------| 
G|----0-----0-------------|----0-----0-------------|----0-----0-------------|----0-----0-------------| 
D|--2-----2-------0-------|--2-----2-------0-------|--2-----2-------0-------|--2-----2-------0-------| 
A|0-----3-------2-----2p0-|0-----3-------2-----2p0-|0-----3-------2-----2p0-|0-----3-------2-----2p0-| 
E|------------3-----0-----|------------3-----0-----|------------3-----0-----|------------3-----0-----| 

Chorus 

e|--3-----------3--/5---3-|--3-----------3--/5---3-|--3-----------3--/5---3-|3-----3-----3-----3-----| 
B|1-----------1-----------|1-----------1-----------|1-----------1-----------|------------------------| 
G|------------------------|------------------------|------------------------|------------------------| 
D|------------------------|------------------------|------------------------|------------------------| 
A|------------------------|------------------------|------------------------|------------------------| 
E|------------------------|------------------------|------------------------|------------------------| 
 | 
e|------------------------|------------------------|------------------------|------------------------| 
B|------------------------|------------------------|------------------------|------------------------| 
G|----------------------0-|----------------------0-|----------------------0-|----0-------------------| 
D|----3-----0---------2---|----3-----0---------2---|----3-----0---------2---|--2-------------3-----0-| 
A|--3-----2-----2p0-0-----|--3-----2-----2p0-0-----|--3-----2-----2p0-0-----|3-----2-3p2---3-----2---| 
E|1-----3-----0-----------|1-----3-----0-----------|1-----3-----0-----------|------------1-----3-----| 

Bridge 

e|------------------------|------------------------|------0-----------0-----|------3-----------3-----| 
B|1-----3-1---1-----3-1---|1-----3-1---1-----3-1---|------------------------|----3-----3-----3-----3-| 
G|------------------------|------------------------|------------------------|--4-----------4---------| 
D|------------------------|------------------------|------------------------|5-----------5-----------| 
A|------------------------|------------------------|------------------------|------------------------| 
E|------------------------|------------------------|------------------------|------------------------| 
 | 
e|------------------------|------------------------|------------------------|------------------------| 
B|------1-----------1-----|------1-----------1-----|------1-----------1-----|------0-----------0-----| 
G|----2---2-------2---2---|----2---2-------2---2---|----0---0-------0---0---|----0---0-------0---0---| 
D|--2-------2---2-------2-|--2-------2---2-------2-|--2-------2---2-------2-|--0-------0---0-------0-| 
A|0-----------0-----------|0-----------0-----------|3-----------3-----------|------------------------| 
E|------------------------|------------------------|------------------------|3-----------3-----------| 


e|------------------------|------------------------|------0-----------0-----|------3-----------3-----| 
B|1-----3-1---1-----3-1---|1-----3-1---1-----3-1---|----1-----1-----1-----1-|----1-----1-----1-----1-| 
G|------------------------|------------------------|--0-----------0---------|--0-----------0---------| 
D|------------------------|------------------------|2-----------2-----------|3-----------3-----------| 
A|------------------------|------------------------|------------------------|------------------------| 
E|------------------------|------------------------|------------------------|------------------------| 
 | 
e|------------------------|------------------------|------------------------|------------------------| 
B|------1-----------1-----|------1-----------1-----|------------------------|------------------------| 
G|----2---2-------2---2---|----2---2-------2---2---|------0-----------0-----|------0-----------0-----| 
D|--2-------2---2-------2-|--2-------2---2-------2-|----2---2-------2---2---|----3---3-------3---3---| 
A|0-----------0-----------|0-----------0-----------|--2-------2---2-------2-|--3-------3---3-------3-| 
E|------------------------|------------------------|0-----------0-----------|1-----------1-----------| 


e|------3-----------3-----|------0-----------0-----|------0-----------0-----|------0-----------0-----| 
B|----1-----1-----1-----1-|----1-----1-----1-----1-|----1-----1-----1-----1-|--1-------1---1-------1-| 
G|--0-----------0---------|--2-----------0---------|--0-----------0---------|0---0-------0---0-------| 
D|3-----------3-----------|2-----------2-----------|3-----------3-----------|------------------------| 
A|------------------------|------------------------|------------------------|------------------------| 
E|------------------------|------------------------|------------------------|------------------------| 
 | 
e|------------------------|------------------------|------------------------|------------------------| 
B|------------------------|------1-----------------|------------------------|------1-----------1-----| 
G|------0-----------0-----|----2---2p0-------0-----|------0-----------0-----|----0---0-------0---0---| 
D|----3---3-------3---3---|--2-------------2---2---|----3---3-------3---3---|--0-------0---0-------0-| 
A|--3-------3---3-------0-|0-------------2-------0-|--3-------3---3-------0-|------------------------| 
E|1-----------1-----------|------------0-----------|1-----------1-----------|3-----------3-----------| 


e|------3-----------3-----|------------------------| 
B|------------------------|------------------------| 
G|------------------------|------------------------| 
D|------------------------|------------------------| 
A|------------------------|------------------------| 
E|------------------------|------------------------| 
 | 
e|------------------------|------------0-----------| 
B|------1-----------1-----|------1-----1-----------| 
G|----2---2-------2---2---|----2---2---2-----------| 
D|--2-------2---2-------2-|--2-------2-2-----------| 
A|0-----------0-----------|0-----------0-----------| 
E|------------------------|------------------------| 

Verse 

e|------------------------|------------------------|------------------------|------------------------| 
B|1---1---1-1-1p0---------|1---1---1-1-1p0---------|1---1---1-1-1p0--------/|5-----1-----3-----------| 
G|------------------------|------------------------|------------------------|------------------------| 
D|------------------------|------------------------|------------------------|------------------------| 
A|------------------------|------------------------|------------------------|------------------------| 
E|------------------------|------------------------|------------------------|------------------------| 
 | 
e|------------------------|------------------------|------------------------|------------------------| 
B|------------------------|------------------------|------------------------|------------------------| 
G|----0-----0-------------|----0-----0-------------|----0-----0-------------|----0-----0-------------| 
D|--2-----2-------0-------|--2-----2-------0-------|--2-----2-------0-------|--2-----2-------0-------| 
A|0-----3-------2-----2p0-|0-----3-------2-----2p0-|0-----3-------2-----2p0-|0-----3-------2-----2p0-| 
E|------------3-----0-----|------------3-----0-----|------------3-----0-----|------------3-----0-----| 


e|------------------------|------------------------|------------------------|0-----------------------| 
B|1---1---1-1-1p0---------|1---1---1-1-1p0---------|1---1---1-1-1p0---------|------1-----3-----------| 
G|------------------------|------------------------|------------------------|------------------------| 
D|------------------------|------------------------|------------------------|------------------------| 
A|------------------------|------------------------|------------------------|------------------------| 
E|------------------------|------------------------|------------------------|------------------------| 
 | 
e|------------------------|------------------------|------------------------|------------------------| 
B|------------------------|------------------------|------------------------|------------------------| 
G|----0-----0-------------|----0-----0-------------|----0-----0-------------|----0-----0-------------| 
D|--2-----2-------0-------|--2-----2-------0-------|--2-----2-------0-------|--2-----2-------0-------| 
A|0-----3-------2-----2p0-|0-----3-------2-----2p0-|0-----3-------2-----2p0-|0-----3-------2-----2p0-| 
E|------------3-----0-----|------------3-----0-----|------------3-----0-----|------------3-----0-----| 


Chorus 

e|--3---3---3---3--/5---3-|--3---3---3---3--/5---3-|--3---3---3---3--/5---3-|--3---3---3---3---3---3-| 
B|1---1---1---1--1--------|1---1---1---1--1--------|1---1---1---1--1--------|1---1---1---1---1---1---| 
G|------------------------|------------------------|------------------------|------------------------| 
D|------------------------|------------------------|------------------------|------------------------| 
A|------------------------|------------------------|------------------------|------------------------| 
E|------------------------|------------------------|------------------------|------------------------| 
 | 
e|------------------------|------------------------|------------------------|------------------------| 
B|------------------------|------------------------|------------------------|------------------------| 
G|----------------------0-|----------------------0-|----------------------0-|----0-------------------| 
D|----3-----0---------2---|----3-----0---------2---|----3-----0---------2---|--2-------------3-----0-| 
A|--3-----2-----2p0-0-----|--3-----2-----2p0-0-----|--3-----2-----2p0-0-----|3-----2-3p2---3-----2---| 
E|1-----3-----0-----------|1-----3-----0-----------|1-----3-----0-----------|------------1-----3-----| 


e|--3---3---3---3--/5---3-|--3---3---3-5---3---0---|--3---3---3---3--/5---3-|3h5p3-------------------| 
B|1---1---1---1--1--------|1---1---1---------------|1---1---1---1--1--------|------3--/5\3----/1-----| 
G|------------------------|------------------------|------------------------|------------------------| 
D|------------------------|------------------------|------------------------|------------------------| 
A|------------------------|------------------------|------------------------|------------------------| 
E|------------------------|------------------------|------------------------|------------------------| 
 | 
e|------------------------|------------------------|------------------------|------------------------| 
B|------------------------|------------------------|------------------------|------------------------| 
G|----------------------0-|----------------------0-|----------------------0-|----0-------------------| 
D|----3-----0---------2---|----3-----0---------2---|----3-----0---------2---|--2-------------3-----0-| 
A|--3-----2-----2p0-0-----|--3-----2-----2p0-0-----|--3-----2-----2p0-0-----|3-----2-3p2---3-----2---| 
E|1-----3-----0-----------|1-----3-----0-----------|1-----3-----0-----------|------------1-----3-----| 

Outro 

e|------------------------|------------0-----------| 
B|------1-----------1-----|------1-----1-----------| 
G|----2---2-------2---2---|----2---2---2-----------| 
D|--2-------2---2-------2-|--2-------2-2-----------| 
A|0-----------0-----------|0-----------0-----------| 
E|------------------------|------------------------|  
  

cifra enviadasem correções
enviado porenviada por:carlluz
top 5 | brand new
top rock alternativo
Outras músicas do artista letras do(a) Brand New
1.
Mene
Top cifras »Top artistas »
Petaxxon Comunicação Online
Cifras.com.br - Melhor e mais completo site de cifras e tablaturas do Brasil
Mais de 1 milhão de acordes de músicas cadastradas desde 2003
As informações contidas no nosso site são colaborações de seus usuários e podem conter erros, sendo assim, não nos responsabilizamos sobre nenhuma destas.
close
menos
mais
close
Cor dos acordes:

Cor da letra:

 

save
close
close
 
redimensionar