Cifras e Tablaturas
Brand New

Brand New

Out Of Mana

Cifras Cancelar Versão de Impressão
cifras

Brand New - Out Of Mana

fixar na tela  
Exibindo: vídeo-aula ver clipes redimensionar
  
Intro 

Guitar 1 

e|-12----------10----12----| 
B|----12-13-12----10----12-| 
G|-------------------------| 
D|-------------------------| 
A|-------------------------| 
E|-------------------------| 

e|-12----------10----17-15-| 
B|----12-13-12----10-------| 
G|-------------------------| 
D|-------------------------| 
A|-------------------------| 
E|-------------------------| 

e|-12----------10----12----| 
B|----12-13-12----10----12-| 
G|-------------------------| 
D|-------------------------| 
A|-------------------------| 
E|-------------------------| 

e|-12----------17----15----| 
B|----12-13-12----17----15-| 
G|-------------------------| 
D|-------------------------| 
A|-------------------------| 
E|-------------------------| 

Guitar 2 

e|--------------------------------| 
B|--------------------------------| 
G|--------------------------------| 
D|-5-5-5-5-7-7-7-2--2-2-2-2-2-2-2-| 
A|-5-5-5-5-7-7-7-2--2-2-2-2-2-2-2-| 
E|-3-3-3-3-5-5-5-0--0-0-0-0-0-0-0-| 


Verse 

Guitar 1 

e|-------------------------------| 
B|-------------------------------| 
G|-5~4~--------------------------| 
D|-------------------------------| 
A|--------------------77/55/0----| 
E|-------------------------------| 

e|-------------------------------| 
B|-------------------------------| 
G|-5~4~---------------5-2-4------| 
D|-------------------------------| 
A|-------------------------------| 
E|-------------------------------| 

Guitar 2 

   PM--------------------------| 
e|-------------------------------| 
B|-------------------------------| 
G|-------------------------------| 
D|-------------------------------| 
A|-5-5-5-5-7-7-7-2-2-2-2-2-2-2-2-| 
E|-3-3-3-3-5-5-5-0-0-0-0-0-0-0-0-| 


Chorus 

Guitar 1 

e|-12----------10----12----| 
B|----12-13-12----10----12-| 
G|-------------------------| 
D|-------------------------| 
A|-------------------------| 
E|-------------------------| 

e|-12----------10----17-15-| 
B|----12-13-12----10-------| 
G|-------------------------| 
D|-------------------------| 
A|-------------------------| 
E|-------------------------| 

e|-12----------10----12----| 
B|----12-13-12----10----12-| 
G|-------------------------| 
D|-------------------------| 
A|-------------------------| 
E|-------------------------| 

e|-12----------17----15----| 
B|----12-13-12----17----15-| 
G|-------------------------| 
D|-------------------------| 
A|-------------------------| 
E|-------------------------| 

Guitar 2 

e|--------------------------------| 
B|--------------------------------| 
G|--------------------------------| 
D|-5-5-5-5-7-7-7-2--2-2-2-2-2-2-2-| 
A|-5-5-5-5-7-7-7-2--2-2-2-2-2-2-2-| 
E|-3-3-3-3-5-5-5-0--0-0-0-0-0-0-0-| 

Bridge 

Guitar 2 

e|-------------------------------------------------------------------------------------------------| 
B|-------------------------------------------------------------------------------------------------| 
G|---------------------------------7-7-7-7-7-7-7-7-7-7-7-7-7-7-7-7-5-5-5-5-5-5-5-5-2-2-2-2-2-2-2-2-| 
D|-5-5-5-5-5-5-5-5-5-5-5-5-5-5-5-5-7-7-7-7-7-7-7-7-7-7-7-7-7-7-7-7-5-5-5-5-5-5-5-5-2-2-2-2-2-2-2-2-| 
A|-5-5-5-5-5-5-5-5-5-5-5-5-5-5-5-5-5-5-5-5-5-5-5-5-5-5-5-5-5-5-5-5-3-3-3-3-3-3-3-3-0-0-0-0-0-0-0-0-| 
E|-3-3-3-3-3-3-3-3-3-3-3-3-3-3-3-3-----------------------------------------------------------------| 

Solo 

Guitar 2 

e|------------| 
B|------------| 
G|------------| 
D|-2----2-2-2-| x4 
A|-2----2-2-2-| 
E|-0----0-0-0-| 

Outro 

Eb Standard 

e|-------------------------------------------------| 
B|-------------------------------------------------| 
G|---7---------------------------------------------| 
D|--7-7----7-----9-----4-----7-----9-----4-----2---| 
A|-5---5--7-7---9-9---4-4---7-7---9-9---4-4---2-2--| 
E|-------5---5-7---7-2---2-5---5-7---7-2---2-0---0-| 

e|-------------------------------------------------| 
B|-------------------------------------------------| 
G|---7-----6-----9-----------4-----7---------------| 
D|--7-7---6-6---9-9----4----4-4---7-7----7-----9---| 
A|-5---5-4---4-7---7--4-4--2---2-5---5--7-7---9-9--| 
E|-------------------2---2-------------5---5-7---7-| 

e|-------------------------------------------------| 
B|-------------------------------------------------| 
G|---7-----6-----4-----2-----------7---------------| 
D|--7-7---6-6---4-4---2-2----4----7-7----7-----9---| 
A|-5---5-4---4-2---2-0---9--4-4--5---5--7-7---9-9--| 
E|-------------------------2---2-------5---5-7---7-| 

e|-------------------------------------------------| 
B|-------------------------------------------------| 
G|---7-----------------------------7-----7---------| 
D|--7-7----7-----6-----4-----2----7-7---7-7----7---| 
A|-5---5--7-7---6-6---4-4---2-2--5---5-5---5--7-7--| 
E|-------5---5-4---4-2---2-0---0-------------5---5-| 

e|-------------------------------| 
B|-------------------------------| 
G|-------------------------------| 
D|---6-----4-----4-----4-----4---| 
A|--6-6---4-4---4-4---4-4---4-4--| 
E|-4---4-2---2-2---2-2---2-2---2-| 

e|-------------------------------| 
B|-------------------------------| 
G|-------------------------------| 
D|---------4-----4-----4-----4---| 
A|--------4-4---4-4---4-4---4-4--| 
E|-0-0-0h2---2-2---2-2---2-2---2-| 

e|-----------------------------| 
B|-----------------------------| 
G|-----------------------------| 
D|-------4-----4-----4-----4---| 
A|------4-4---4-4---4-4---4-4--| 
E|-0-0h2---2-2---2-2---2-2---2-| 

e|-----------------------------------| 
B|-----------------------------------| 
G|-----------------------------------| 
D|-------4-----4-----4-----4---------| 
A|------4-4---4-4---4-4---4-4--------| 
E|-0-0h2---2-2---2-2---2-2---2-0-0h2-| 



************************************ 

| ~  Vibrato 
| /  Slide up 
| h  Hammer-on 
  

************************************ 
  

cifra enviadasem correções
enviado porenviada por:PAULLET3
top 5 | brand new
top rock alternativo
Outras músicas do artista letras do(a) Brand New
3.
451
Top cifras »Top artistas »
Petaxxon Comunicação Online
Cifras.com.br - Melhor e mais completo site de cifras e tablaturas do Brasil
Mais de 1 milhão de acordes de músicas cadastradas desde 2003
As informações contidas no nosso site são colaborações de seus usuários e podem conter erros, sendo assim, não nos responsabilizamos sobre nenhuma destas.
close
menos
mais
close
Cor dos acordes:

Cor da letra:

 

save
close
close
 
redimensionar