Cifras e Tablaturas
Braza

Braza

Subindo Santa

Cifras Cancelar Versão de Impressão
cifras

Braza - Subindo Santa

fixar na tela  
Exibindo: vídeo-aula ver clipes redimensionar
  
Cm7                     Fm7 
E|----------------------------------------------------------| 
B|-----------4-4-4--------------------4-4-4-----------------| 
G|--3-x-3-3----------3h5---------3-3----------3h5-----------|  (8x) 
D|-----------------5------------------------5---------------| 
A|----------------------------------------------------------| 
E|----------------------------------------------------------| 

                
 Guitarra Solo representando o sintetizador: 
                
E|------------------------------------10h11p10-------------| 
B|----------------------------------------------11/8-------| 
G|---------------------------------------------------------|  (2x intercaladas, antes da bateria entrar) 
D|---------------------------------------------------------|  (Se repete durante a música também) 
A|---------------------------------------------------------| 
E|---------------------------------------------------------| 

                
E|--10----------------------8-----10h11p10-----------------| 
B|------------------------------------------11/8-----------| 
G|---------------------------------------------------------|  (4x, após a bateria entrar) 
D|---------------------------------------------------------| 
A|---------------------------------------------------------| 
E|---------------------------------------------------------| 

Terceira Guitarra 

E|---------------------------/10---------------------------| 
B|---------------------------/11---------------------------| 
G|---------------------------/10---------------------------|  (2x intercaladas, após a bateria entrar) 
D|---------------------------------------------------------| 
A|---------------------------------------------------------| 
E|---------------------------------------------------------| 

 Cm7 Fm7 
 
  

cifra enviadasem correções
enviado porenviada por:robepoiel
top 5 | braza
top rock'n roll
Outras músicas do artista letras do(a) Braza
2.
Jaya
Top cifras »Top artistas »
Petaxxon Comunicação Online
Cifras.com.br - Melhor e mais completo site de cifras e tablaturas do Brasil
Mais de 1 milhão de acordes de músicas cadastradas desde 2003
As informações contidas no nosso site são colaborações de seus usuários e podem conter erros, sendo assim, não nos responsabilizamos sobre nenhuma destas.
close
menos
mais
close
Cor dos acordes:

Cor da letra:

 

save
close
close
 
redimensionar