British India

British India

Blinded
Composição de (British India)
Intro: 

eb|------------------------------| 
Bb|------------------------------| 
Gb|-----14-----12-9-9-9-9-9-9-9--| 
Db|-----12-----10-7-7-7-7-7-7-7--| 
Ab|-0-0----0-0----0-0-0-0-0-0-0--| 
Eb|------------------------------| x4 


eb|------------------------------| 
Bb|-----10-----9-5-5-5-5-5-5-5---| 
Gb|-----7------6-2-2-2-2-2-2-2---| 
Db|-0-0----0-0---0-0-0-0-0-0-0---| 
Ab|------------------------------| 
Eb|------------------------------| x2 


Verse (repeat): 

eb|------------------------------| 
Bb|------------------------------| 
Gb|-----14-----12-9-9-9-9-9-9-9--| 
Db|-----12-----10-7-7-7-7-7-7-7--| 
Ab|-0-0----0-0----0-0-0-0-0-0-0--| 
Eb|------------------------------| x2 


eb|------------------------------| 
Bb|-----10-----9-5-5-5-5-5-5-5---| 
Gb|-----7------6-2-2-2-2-2-2-2---| 
Db|-0-0----0-0---0-0-0-0-0-0-0---| 
Ab|------------------------------| 
Eb|------------------------------| x2 


Chorus: 


Guitar 1 
    Ab              Db 
eb|-----------------------------------| 
Bb|-----------------------------------| 
Gb|-----------------7-7-7-7-7-7-7-7-7-| 
Db|-7-7-7-7-7-7-7-7-7-7-7-7-7-7-7-7-7-| 
Ab|-7-7-7-7-7-7-7-7-5-5-5-5-5-5-5-5-5-| 
Eb|-5-5-5-5-5-5-5-5-------------------| x2 

Guitar 2 

eb|-0--0--0--0--0--0--0--0--0--0--0--0--0--0--0--| 
Bb|-10-10-10-10-10-10-10-12-12-12-12-14-14-14-14-| 
Gb|----------------------------------------------| 
Db|----------------------------------------------| 
Ab|----------------------------------------------| 
Eb|----------------------------------------------| x2 


Bridge: 

    Eb              Db 
eb|-----------------------------------| 
Bb|-----------------------------------| 
Gb|-----------------7-7-7-7-7-7-7-7-7-| 
Db|-2-2-2-2-2-2-2-2-7-7-7-7-7-7-7-7-7-| 
Ab|-2-2-2-2-2-2-2-2-5-5-5-5-5-5-5-5-5-| 
Eb|-0-0-0-0-0-0-0-0-------------------| x2 


Lead in to last Chorus: 

Guitar 2 

eb|-0-0-0-0-0--0--0--0--0--0--0--0--0--0--0--0---| 
Bb|-9-9-9-9-10-10-10-10-12-12-12-12-14-14-14-14--| 
Gb|----------------------------------------------| 
Db|----------------------------------------------| 
Ab|----------------------------------------------| 
Eb|----------------------------------------------| x2 

eb|-0--0--0--0--0--0--0--0--0--0--0--0--0--0--0--0--| 
Bb|-17-17-17-17-19-19-19-19-21-21-21-21-22-22-22-22-| 
Gb|-------------------------------------------------| 
Db|-------------------------------------------------| 
Ab|-------------------------------------------------| 
Eb|-------------------------------------------------| x2

Enviado por: Deivid Cavalcanti

Corrigido por: sem correções