Cifras e Tablaturas
BROCKHAMPTON
Cifras Cancelar Versão de Impressão

BROCKHAMPTON - Team

Tom: F

  			Based off of Lachlan Thompson's YouTube Tutorial: https://youtu.be/BqK8Kqtd7P4 

Intro x4 
    Fmaj7                      F#/D             C#m 
e|--x-----------x------x-------x----------------x----| 
B|--11----------11-----11------11---------------9----| 
G|--10----------10-----10------11---------------9----| 
D|--11----------11-----11------11---------------11---| 
A|--9-----------x------x-------x----------------x----| 
E|--x-----------9------10------11---------------9----| 

 Evanie...             Did you lie to him since you  

            Bmaj7               Fdim7/B 
e|----------x-------------------x--------------------| 
B|----------7-------------------6--------------------| 
G|----------8-------------------7--------------------| 
D|----------8-------------------6--------------------| 
A|----------x-------------------x--------------------| 
E|----------7-------------------7--------------------| 

were seventeen?        How's he holding up? 

Verse 
                F#maj7                       Bmaj7 
e|--------------x----------------------------x-------| 
B|--------------11---------------------------7-------| 
G|--------------10---------------------------8-------| 
D|--------------11---------------------------8-------|  x2 
A|--------------9----------------------------x-------| 
E|--------------x----------------------------7-------| 

You should move on...      I swear you'll be fine... 

    F#maj7 
e|--x-----------------------------x-----------x------| 
B|--11----------------------------11----------11-----| 
G|--10----------------------------10----------10-----| 
D|--11----------------------------11----------11-----| 
A|--9-----------------------------x-----------x------| 
E|--x-----------------------------9-----------10-----| 

And when you're alone...      And his love is gone...  

    F#/D                       C#m                Bmaj7 
e|--x--------------------------x------------------x--| 
B|--11-------------------------9------------------7--| 
G|--11-------------------------9------------------8--| 
D|--11-------------------------11-----------------8--| 
A|--x--------------------------x------------------x--| 
E|--11-------------------------9------------------7--| 

    Maybe you'll see that...   Your company was the worst... 

      Fdim7/B                   F#maj7 
e|----x-------------------------x--------------------| 
B|----6-------------------------11-------------------| 
G|----7-------------------------10-------------------| 
D|----6-------------------------11-------------------| 
A|----x-------------------------9--------------------| 
E|----7-------------------------x--------------------| 

Thing for...          him, your sin 


************************************ 

| x   Dead note 

************************************ 
    	
fixar
fixar inscrever-se

enviado porenviado por: LINEKERS
cifra enviadaCorrigida por: sem correções
logo top cifrasComente
ico música do artistaMúsicas deste artista
ico curtiuCurtiu?
ico destaqueDestaque
Petaxxon Comunicação Online

Cifras.com.br - Melhor e mais completo site de cifras e tablaturas do Brasil Mais de 1 milhão de acordes de músicas cadastradas desde 2003
As informações contidas no nosso site são colaborações de seus usuários e podem conter erros, sendo assim, não nos responsabilizamos sobre nenhuma destas.

close
menos
mais
close
Cor dos acordes:

Cor da letra:

close
Alinhar acordes a direita Alinhar acordes a esquerda Alinhar acordes em baixo Alinhar acordes no topo
close
  Mostrar todos os acordes Esconder acordes muito fáceis Esconder acordes fáceis Esconder acordes intermediários
redimensionar
glossário