Cifras e Tablaturas
Bruno e Marrone

Bruno e Marrone

Deixa 5

Cifras Cancelar Versão de Impressão Print

Bruno e Marrone - Deixa 5

Tom:

  			iNTRO: 
E|--------------------------| 
A|--------------------------| 
D|---0----------------------| 
G|---0----------------------| 
B|---3----------------------| 
e|---3----------------------| 
 
e|---2----------------------| 
B|---3----------------------| 
G|--------------------------| 
D|--------------------------| 
A|--------------------------| 
E|--------------------------| 
   VISITE:WWW.MCG-SANTOCRISTO.FOTOFLOG.COM.BR 

    	
fixar
fixar inscrever-se

enviado porenviado por: fmoreira91
cifra enviadaCorrigida por: sem correções
logo top cifrasComente
ico música do artistaMúsicas deste artista
ico curtiuCurtiu?
ico destaqueDestaque
Petaxxon Comunicação Online

Cifras.com.br - Melhor e mais completo site de cifras e tablaturas do Brasil Mais de 1 milhão de acordes de músicas cadastradas desde 2003
As informações contidas no nosso site são colaborações de seus usuários e podem conter erros, sendo assim, não nos responsabilizamos sobre nenhuma destas.

close
menos
mais
close
Cor dos acordes:

Cor da letra:

close
Alinhar acordes a direita Alinhar acordes a esquerda Alinhar acordes em baixo Alinhar acordes no topo
close
  Mostrar todos os acordes Esconder acordes muito fáceis Esconder acordes fáceis Esconder acordes intermediários
redimensionar
glossário