Cifras e Tablaturas
Bruno e Marrone

Bruno e Marrone

Deixa (versão original)

Cifras Cancelar Versão de Impressão Print

Bruno e Marrone - Deixa (versão original)

Tom:

  			solo inicial (1) 
 
 
      G                                C  
e/-----------3--2--0----------------0--------------- 
b/---------3-----------3------------1--------------- 
g/------0------------------0--------0--------------- 
 D/----------------------------------2---------------  
 A/----------------------------------3---------------  
 E/---3----------------------------------------------  
 
segundo solo 
 
e/-------------------------------------------------- 
b/---11^---11^---11--9~~--11^---11------11p9-9h11--- 
g/---------------------------------11--------------- 
 D/--------------------------------------------------  
 A/--------------------------------------------------  
 E/--------------------------------------------------  
 

    	
fixar
fixar inscrever-se

enviado porenviado por: Derson #
cifra enviadaCorrigida por: sem correções
logo top cifrasComente
ico música do artistaMúsicas deste artista
ico curtiuCurtiu?
ico destaqueDestaque
Petaxxon Comunicação Online

Cifras.com.br - Melhor e mais completo site de cifras e tablaturas do Brasil Mais de 1 milhão de acordes de músicas cadastradas desde 2003
As informações contidas no nosso site são colaborações de seus usuários e podem conter erros, sendo assim, não nos responsabilizamos sobre nenhuma destas.

close
menos
mais
close
Cor dos acordes:

Cor da letra:

close
Alinhar acordes a direita Alinhar acordes a esquerda Alinhar acordes em baixo Alinhar acordes no topo
close
  Mostrar todos os acordes Esconder acordes muito fáceis Esconder acordes fáceis Esconder acordes intermediários
redimensionar
glossário