Cifras e Tablaturas
Budgie

Budgie

You're The Biggest Thing Since Powdered Milk

Cifras Cancelar Versão de Impressão
cifras

Budgie - You're The Biggest Thing Since Powdered Milk

fixar na tela  
Exibindo: vídeo-aula ver clipes redimensionar
  
Intro 

D#|---------------------------------------------------------------------------| 
A#|---------------------------------------------------------------------------| 
F#|---------------------------------------------------------------------------| 2x 
C#|----------------3----------------------------------3-----------------------| 
G#|--------3-5-5-5---5-3-5--5-3-5~~~----------3-5-5-5---5-3-5--5-3------------| 
D#|--3-4-5----------------------------3-4-5--------------------3~~~-----------| 

verse 1 

D#|---------------------------------------------------------------------------| 
A#|---------2---------5-5----------7----------5-----0-------------------------| 
F#|---------2---------5-5----------7----------5-----0-------------------------| 4x 
C#|---------2---------5-5----------7----------5-----0-------------------------| 
G#|-0-0-0-0---0-0-0-0------0-0-0-0----0-0-0-0---0-0---------------------------| 
D#|---------------------------------------------------------------------------| 

    PM----|   PM----|      PM----|    PM----|   PM 

Solo 1 

3:34 

D#|---------------------------------------------------------------------------| 
A#|-------------------------------8b10r8--------------------------------------| 
F#|-5-h7-5---5-7b9----7b9r7p5---5---------5~------5-7-5--7b9-7b9---7b9r7p5---5| 
C#|--------7------------------7-----------------7-------------------------7---| 
G#|---------------------------------------------------------------------------| 
D#|---------------------------------------------------------------------------| 

3:44 

D#|-----------------------------------------------------15b17-r15-------------| 
A#|-8b10-r8----------13-15-15b17-15b17---13h15p13----13-----------13----------| 
F#|---------5----/14------------------------------14--------------------------| 
C#|---------------------------------------------------------------------------| 
G#|---------------------------------------------------------------------------| 
D#|---------------------------------------------------------------------------| 

3:51 

D#|----------------------------------------15b17-r15--------------------------| 
A#|-----13-15-15b17-15b17---13h15p13----13-----------13-----------------------| 
F#|-/14------------------------------14---------------------------------------| 
C#|---------------------------------------------------------------------------| 
G#|---------------------------------------------------------------------------| 
D#|---------------------------------------------------------------------------| 

3:57 

D#|----18b19--19r18p-18p15-------------------------------18-------------------| 
A#|-15---------------------18-15----15-18-15-----15-18b19--19r18-15-----------| 
F#|------------------------------17-----------17--------------------17-15-----| 
C#|---------------------------------------------------------------------------| 
G#|---------------------------------------------------------------------------| 
D#|---------------------------------------------------------------------------| 

 4:02 

D#|---------------------------------------------------------------------------| 
A#|----15-------------------------------------8b10-8-p5-----------------------| 
F#|-17----17-15~----------------5~--5h7-5---5-----------7-7p5-------5---------| 
C#|-------------------------5-7---7-------7-------------------7-5h7---7-------| 
G#|-------------------5-6-7---------------------------------------------------| 
D#|---------------5-8---------------------------------------------------------| 

4:09 

D#|----------------------------------8-------------5--------------------------| 
A#|-8-8-7-5-7-5-7-5--------------------------------5-h7-----------------------| 
F#|-----------------7-5----------5/7---7\5-5---5~-------7p5---5-7-7b9r7p5---5-| 
C#|----------------------7-5-5h7-------------7--------------7-------------7---| 
G#|---------------------------------------------------------------------------| 
D#|---------------------------------------------------------------------------| 

4:17 

D#|---------------------------------------------------------------------------| 
A#|-----8-10-10b12--12r10p8--8h10-8~------13-15-13~-----13-15-----------------| 
F#|-7/9--------------------9----------/14-----------/14-----------------------| 
C#|---------------------------------------------------------------------------| 
G#|---------------------------------------------------------------------------| 
D#|---------------------------------------------------------------------------| 

4:22 

D#|----------------15b16r15---------------------------------------------------| 
A#|-13h15p13----13----------13~-----13-15-15b17-17-17-17-15b17r15p13----13----| 
F#|----------14------------------14----------------------------------14----14-| 
C#|---------------------------------------------------------------------------| 
G#|---------------------------------------------------------------------------| 
D#|---------------------------------------------------------------------------| 

4:28 

D#|----------------15b16r15---------------------------------------------------| 
A#|-13h15p13----13----------13~-----------------------------------------------| 
F#|----------14---------------------------------------------------------------| 
C#|---------------------------------------------------------------------------| 
G#|---------------------------------------------------------------------------| 
D#|---------------------------------------------------------------------------| 

4:32 

D#|--/5-5-5-5-5-5-5-5-5-5-5-5--/5-5-5-5-5-5-5-5-5-5-5-5--/5-5-5-5-5-5-5-5-5-5-5-5-------------------| 
A#|--/5-5-5-5-5-5-5-5-5-5-5-5--/5-5-5-5-5-5-5-5-5-5-5-5--/5-5-5-5-5-5-5-5-5-5-5-5-------------------| 
F#|--/6-6-6-6-6-6-6-6-6-6-6-6--/6-6-6-6-6-6-6-6-6-6-6-6--/6-6-6-6-6-6-6-6-6-6-6-6--/7-7p5---5h7-5~--| 
C#|--/7-7-7-7-7-7-7-7-7-7-7-7--/7-7-7-7-7-7-7-7-7-7-7-7--/7-7-7-7-7-7-7-7-7-7-7-7---------7---------| 
G#|-------------------------------------------------------------------------------------------------| 
D#|-------------------------------------------------------------------------------------------------| 

4:37 

D#|--/5-5-5-5-5-5-5-5-5-5-5-5--/5-5-5-5-5-5-5-5-5-5-5-5--/5-5-5-5-5-5-5-5-5-5-5-5-------------------| 
A#|--/5-5-5-5-5-5-5-5-5-5-5-5--/5-5-5-5-5-5-5-5-5-5-5-5--/5-5-5-5-5-5-5-5-5-5-5-5-------------------| 
F#|--/6-6-6-6-6-6-6-6-6-6-6-6--/6-6-6-6-6-6-6-6-6-6-6-6--/6-6-6-6-6-6-6-6-6-6-6-6--/7-7p5---5h7-5~--| 
C#|--/7-7-7-7-7-7-7-7-7-7-7-7--/7-7-7-7-7-7-7-7-7-7-7-7--/7-7-7-7-7-7-7-7-7-7-7-7---------7---------| 
G#|-------------------------------------------------------------------------------------------------| 
D#|-------------------------------------------------------------------------------------------------| 

4:43 

D#|--/5-5-5-5-5-5-5-5-5-5-5-5--/5-5-5-5-5-5-5-5-5-5-5-5--/5-5-5-5-5-5-5-5-5-5-5-5--8p5--------------| 
A#|--/5-5-5-5-5-5-5-5-5-5-5-5--/5-5-5-5-5-5-5-5-5-5-5-5--/5-5-5-5-5-5-5-5-5-5-5-5------5-5--8-b10---| 
F#|--/6-6-6-6-6-6-6-6-6-6-6-6--/6-6-6-6-6-6-6-6-6-6-6-6--/6-6-6-6-6-6-6-6-6-6-6-6-------------------| 
C#|--/7-7-7-7-7-7-7-7-7-7-7-7--/7-7-7-7-7-7-7-7-7-7-7-7--/7-7-7-7-7-7-7-7-7-7-7-7-------------------| 
G#|-------------------------------------------------------------------------------------------------| 
D#|-------------------------------------------------------------------------------------------------| 

4:48 

D#|--/5-5-5-5-5-5-5-5-5-5-5-5--/5-5-5-5-5-5-5-5-5-5-5-5--/5-5-5-5-5-5-5-5-5-5-5-5-------------------| 
A#|--/5-5-5-5-5-5-5-5-5-5-5-5--/5-5-5-5-5-5-5-5-5-5-5-5--/5-5-5-5-5-5-5-5-5-5-5-5-------------------| 
F#|--/6-6-6-6-6-6-6-6-6-6-6-6--/6-6-6-6-6-6-6-6-6-6-6-6--/6-6-6-6-6-6-6-6-6-6-6-6--/7-7p5---5h7-5~--| 
C#|--/7-7-7-7-7-7-7-7-7-7-7-7--/7-7-7-7-7-7-7-7-7-7-7-7--/7-7-7-7-7-7-7-7-7-7-7-7---------7---------| 
G#|-------------------------------------------------------------------------------------------------| 
D#|-------------------------------------------------------------------------------------------------| 

4:54 

D#|--/12-12-12-12-12-12-12-12-12-12-12-12--/12-12-12-12-12-12-12-12-12-12-12-12---------------------| 
A#|--/14-14-14-14-14-14-14-14-14-14-14-14--/14-14-14-14-14-14-14-14-14-14-14-14---------------------| 
F#|--/14-14-14-14-14-14-14-14-14-14-14-14--/14-14-14-14-14-14-14-14-14-14-14-14---------------------| 
C#|-------------------------------------------------------------------------------------------------| 
G#|-------------------------------------------------------------------------------------------------| 
D#|-------------------------------------------------------------------------------------------------| 

4:57 

D#|--/12-12-12-12-12-12-12-12-12-12-12-12-----------------------------------------------------------| 
A#|--/14-14-14-14-14-14-14-14-14-14-14-14-----15b17--15b17\-----------------------------------------| 
F#|--/14-14-14-14-14-14-14-14-14-14-14-14--14-------------------------------------------------------| 
C#|-------------------------------------------------------------------------------------------------| 
G#|-------------------------------------------------------------------------------------------------| 
D#|-------------------------------------------------------------------------------------------------| 

5:00 

D#|-------------------------------------------------------------------------------------------------| 
A#|--/14-14-14-14-14-14-14-14-14-14-14-14--/14-14-14-14-14-14-14-14-14-14-14-14---------------------| 
F#|--/14-14-14-14-14-14-14-14-14-14-14-14--/14-14-14-14-14-14-14-14-14-14-14-14---------------------| 
C#|--/14-14-14-14-14-14-14-14-14-14-14-14--/14-14-14-14-14-14-14-14-14-14-14-14---------------------| 
G#|-------------------------------------------------------------------------------------------------| 
D#|-------------------------------------------------------------------------------------------------| 

5:02 

D#|----------------------------------------12-------------------------------------------------------| 
A#|--/14-14-14-14-14-14-14-14-14-14-14-14--------15b17--13~-----------------------------------------| 
F#|--/14-14-14-14-14-14-14-14-14-14-14-14-----14----------------------------------------------------| 
C#|--/14-14-14-14-14-14-14-14-14-14-14-14-----------------------------------------------------------| 
G#|-------------------------------------------------------------------------------------------------| 
D#|-------------------------------------------------------------------------------------------------| 

5:05 

D#|-----15b17-15b17--15-12-15-12----------------------------------------------| 
A#|--13--------------------------15-13-------13----15b17-17-17-17-17-17-17----| 
F#|------------------------------------12-14----14----------------------------| 
C#|---------------------------------------------------------------------------| 
G#|---------------------------------------------------------------------------| 
D#|---------------------------------------------------------------------------| 

5:10 

D#|---------------------------------------------------------------------17----| 
A#|--r16-16-r15----13-15-15b17-15b17--15----15----15b17-13~----13-15b17-------| 
F#|-------------14-----------------------14----14-----------14----------------| 
C#|---------------------------------------------------------------------------| 
G#|---------------------------------------------------------------------------| 
D#|---------------------------------------------------------------------------| 

5:14 

D#|---------------------------------------------------------------------------| 
A#|--17r15-13----13h15-13~~~~~~~~~~~~~~~~~~~~~~~~~~~~~~~~~~~~~~~~~~~~~~~------| 
F#|-----------14--------------------------------------------------------------| 
C#|---------------------------------------------------------------------------| 
G#|---------------------------------------------------------------------------| 
D#|---------------------------------------------------------------------------| 

Riff 3 

D#|---------------------------------------------------------------------------| 
A#|---------------------------------------------------------------------------| 
F#|-------12-------11-------9-------------------------------------------------| 4x 
C#|----------14-------12------10----------------------------------------------| 
G#|-0-0-0-------0--------0----------------------------------------------------| 
D#|-------------------------------0--3b---------------------------------------| 

    PM--|       PM       PM       PM--| 

verse 2 

D#|---------------------------------------------------------------------------| 
A#|----------------------5-5--------------------------------------------------| 
F#|---------------------------------------------------------------------------| 8x 
C#|----------------------7-7--------------------------------------------------| 
G#|----------------------7-7--------------------------------------------------| 
D#|-5-5-5-5-5--5-5-5-5-5------------------------------------------------------| 

    PM-----------------| 

verse 3 

D#|---------------------------------------------------------------------------| 
A#|----------------------3-3--------------------------------------------------| 
F#|---------------------------------------------------------------------------| 8x 
C#|----------------------5-5--------------------------------------------------| 
G#|----------------------5-5--------------------------------------------------| 
D#|-3-3-3-3-3--3-3-3-3-3------------------------------------------------------| 

    PM-----------------| 

Riff 6 

D#|---------------------------------------------------------------------------| 
A#|---------------------------------------------------------------------------| 
F#|---------------------------------------------------------------------------| 1x 
C#|-10-10-9--9--8--8--7--7----------------------------------------------------| 
G#|-10-10-9--9--8--8--7--7----------------------------------------------------| 
D#|-8--8--7--7--6--6--5--5----------------------------------------------------| 

Riff 7 

D#|---------------------------------------------------------------------------| 
A#|---------------------------------------------------------------------------| 
F#|-------7-7-------5-5-------4-4-------3-------------------------------------| 4x 
C#|-------7-7-------5-5-------4-4-------3-------------------------------------| 
G#|-0-0-0-----0-0-0-----0-0-0-----0-0-0---------------------------------------| 
D#|---------------------------------------------------------------------------| 

    PM--|     PM--|     PM--|     PM--| 

Solo 2 

7:09 

D#|-----------------------5---------------------------------------------------| 
A#|---5-------5~------5h8---8-5----------------------------5-h7-h8--7--5------| 
F#|-7---7---7-------------------7p5--------7--9---7h8--9~---------------------| 
C#|-------7-------------------------5~---7------7-----------------------------| 
G#|---------------------------------------------------------------------------| 
D#|---------------------------------------------------------------------------| 

7:20 

D#|-------------------15b17--15p12------------------15b17--12-----------------| 
A#|----------15p13-----------------13-15b17-15~---------------15----15b17--15-| 
F#|-7p5------------14----------------------------14--------------14-----------| 
C#|-----5~--------------------------------------------------------------------| 
G#|---------------------------------------------------------------------------| 
D#|---------------------------------------------------------------------------| 

7:29 

D#|---------------------------------------------------------------------------| 
A#|-------------------5-h7-h8--7-5---------------------------8-10-10----------| 
F#|-7h9-9-7------------------------7p5----------5-7-7/9-7--9------------------| 
C#|---------9-7h9-7~-------------------5~----/7-------------------------------| 
G#|---------------------------------------------------------------------------| 
D#|---------------------------------------------------------------------------| 

7:36 

D#|--------------------------------------------------17b19-17b19--------------| 
A#|-------15-17b19-17b19-17-15-17--b19---15-17----15-------------15~----------| 
F#|-14-17--------------------------------------16-----------------------------| 
C#|---------------------------------------------------------------------------| 
G#|---------------------------------------------------------------------------| 
D#|---------------------------------------------------------------------------| 

7:44 

D#|---------------------------------------------------------------------------| 
A#|-----12--15-15-b17--15p12-----------------8~--8h10-8-10b12-10b12-12r10p8---| 
F#|-/14----------------------14p12--\9---7h9----------------------------------| 
C#|------------------------------------9--------------------------------------| 
G#|---------------------------------------------------------------------------| 
D#|---------------------------------------------------------------------------| 

7:50 

D#|---------------------------------------------------------------------------| 
A#|---8~----------------------------------------------------------------------| 
F#|-9-------------------------------------------------------------------------| 
C#|---------------------------------------------------------------------------| 
G#|---------------------------------------------------------------------------| 
D#|---------------------------------------------------------------------------| 


************************************ 


| h   Hammer-on 
| p   Pull-off 
| r   Release 
| b   Bend 
| /   Slide up 
| \   Slide down 
| ~   Vibrato 
| PM  Palm mute 

************************************ 
  

top 5 | budgie
top
Outras músicas do artista letras do(a) Budgie
Top cifras »Top artistas »
Petaxxon Comunicação Online
Cifras.com.br - Melhor e mais completo site de cifras e tablaturas do Brasil
Mais de 1 milhão de acordes de músicas cadastradas desde 2003
As informações contidas no nosso site são colaborações de seus usuários e podem conter erros, sendo assim, não nos responsabilizamos sobre nenhuma destas.
close
menos
mais
close
Cor dos acordes:

Cor da letra:

 

save
close
close
 
redimensionar