Cifras e Tablaturas
Bush

Bush

Peace S

Cifras Cancelar Versão de Impressão Print

Bush - Peace S

Tom:

  			
Intro 
e|---------------------------------------------------------------------------| 
B|---------------------------------------------------------------------------| 
G|---------------------------------------------------------------------------| 
D|---------------------------------------------------------------------------| 
A|--10---12- - -14-----10----12----14-------10-------------------------------| 
E|----10----10---10-10----10----10----10-10----10----------------------------|x4 

Pre-Verse 
e|---19-19-19----------------------------------------------------------------| 
B|------------20-20-20-20----------20-20-20-20-20----------------------------| 
G|------------------------18-18-18-------------------------------------------| 
D|---------------------------------------------------------------------------| 
A|---------------------------------------------------------------------------| 
E|---------------------------------------------------------------------------|x3 

e|----19-19-19---------------------------------------------------------------| 
B|-------------20-20-20-20---------------------------------------------------| 
G|-------------------------18-18-18------------------------------------------| 
D|---------------------------------------------------------------------------| 
A|---------------------------------------------------------------------------| 
E|---------------------------------------------------------------------------| 

Verse 
 Listen for the rhythm (palm-muted) 
e|---------------------------------------------------------------------------| 
B|---------------------------------------------------------------------------| 
G|---------------------------------------------------------------------------| 
D|---------------------------------------------------------------------------| 
A|---------------------------------------------------------------------------| 
E|--12------------5---------------10-----------------8-----------————--------| 

e|-------19-19-19------------------------------------------------------------| 
B|-----------------20-20-20-20----------20-20-20-20-20-----------------------| 
G|-----------------------------18-18-18--------------------------------------| 
D|---------------------------------------------------------------------------| 
A|---------------------------------------------------------------------------| 
E|---------------------------------------------------------------------------|x4 

Chorus 
e|---------------------------------------------------------------------------| 
B|---------------------------------------------------------------------------| 
G|---------------------------------------------------------------------------| 
D|-----12----------7-----------12--------------5-----------------------------| 
A|-----12----------7-----------12--------------5-----------------------------| 
E|-----10----------5-----------10--------------3-----------------------------| 

e|---------------------------------------------------------------------------| 
B|---------------------------------------------------------------------------| 
G|---------------------------------------------------------------------------| 
D|---------------------------------------------------------------------------| 
A|----10----12----14-------10---12----14-------10----------------------------| 
E|-------10----10----10-10----10---10----10-10----10-------------------------|x4 

Pre-Verse 
e|------19-19-19-------------------------------------------------------------| 
B|---------------20-20-20-20----------20-20-20-20-20-------------------------| 
G|---------------------------18-18-18----------------------------------------| 
D|---------------------------------------------------------------------------| 
A|---------------------------------------------------------------------------| 
E|---------------------------------------------------------------------------|x4 

Verse 
e|---------------------------------------------------------------------------| 
B|---------------------------------------------------------------------------| 
G|---------------------------------------------------------------------------| 
D|---------------------------------------------------------------------------| 
A|---------------------------------------------------------------------------| 
E|-----12-------5-----10--------8--------------------------------------------| 

e|----19-19-19---------------------------------------------------------------| 
B|-------------20-20-20-20----------20-20-20-20-20---------------------------| 
G|-------------------------19-19-19------------------------------------------| 
D|---------------------------------------------------------------------------| 
A|---------------------------------------------------------------------------| 
E|---------------------------------------------------------------------------| 

Chorus 
e|---------------------------------------------------------------------------| 
B|---------------------------------------------------------------------------| 
G|---------------------------------------------------------------------------| 
D|-----12---------7--------12--------5---------------------------------------| 
A|-----12---------7--------12--------5---------------------------------------| 
E|-----10---------5--------10--------3---------------------------------------| 

e|---------------------------------------------------------------------------| 
B|---------------------------------------------------------------------------| 
G|---------------------------------------------------------------------------| 
D|---------------------------------------------------------------------------| 
A|----10--12--14------10--12--14-----10--------------------------------------| 
E|------10--10---10-10--10--10--10-10--10------------------------------------|x4 

 Play this after playing the Chorus 
e|---------------------------------------------------------------------------| 
B|---------------------------------------------------------------------------| 
G|---------------------------------------------------------------------------| 
D|---------------------------------------------------------------------------| 
A|---10----12----14-------10----12---14--------16/---------------------------| 
E|------10----10----10-10----10----10----10-10-------------------------------|x8 

Bridge 
e|---------------------------------------------------------------------------| 
B|---------------------------------------------------------------------------| 
G|---------------------------------------------------------------------------| 
D|--/17--14---17--14---17-16--14---17-16--12---------------------------------| 
A|---------------------------------------------------------------------------| 
E|---------------------------------------------------------------------------|x2 

e|---------------------------------------------------------------------------| 
B|--------20-19---------20-19------------------------------------------------| 
G|---------------------------------------------------------------------------| 
D|---/17----------14/17------------------------------------------------------| 
A|---------------------------------------------------------------------------| 
E|---------------------------------------------------------------------------| 

Solo 
e|---------------------------------------------------------------------------| 
B|----20-19-17-19-17-15-17-15-13-12-13-12-10-8-10b---------------------------| 
G|---------------------------------------------------------------------------| 
D|---------------------------------------------------------------------------| 
A|---------------------------------------------------------------------------| 
E|---------------------------------------------------------------------------| 

Chorus 
e|--------------------|------------------------------------------------------| 
B|--------------------|------------------------------------------------------| 
G|--------------------|------------------------------------------------------| 
D|---16--14--17--12---|------------------------------------------------------| 
A|--------------------|-10--12--14-------10---12--14------10-----------------| 
E|--------------------|---10--10---10-10----10--10---10-10--10---x4----------| 

e|---------------------------------------------------------------------------| 
B|---------------------------------------------------------------------------| 
G|---------------------------------------------------------------------------| 
D|---------------------------------------------------------------------------| 
A|----10--12--14-----10--12--14------16/-------------------------------------| 
E|------10--10--10-10--10--10--10-10-------x4--------------------------------| 

Outro 
e|---------------------------------------------------------------------------| 
B|-----------20-19-----------------------------------------------------------| 
G|—-—------–--------—----—----------------------------------------—---------—| 
D|----14/17------------------------------------------------------------------| 
A|---------------------------------------------------------------------------| 
E|---------------------------------------------------------------------------|x4 

e|---------------------------------------------------------------------------| 
B|----20---------------------------------------------------------------------| 
G|---------------------------------------------------------------------------| 
D|---------------------------------------------------------------------------| 
A|---------------------------------------------------------------------------| 
E|---------------------------------------------------------------------------| 


************************************ 

| b   Bend 
| /   Slide up 
| \   Slide down 

************************************ 
    	
fixar
fixar inscrever-se

enviado porenviado por: aman_claudino
cifra enviadaCorrigida por: sem correções
logo top cifrasComente
ico música do artistaMúsicas deste artista
ico curtiuCurtiu?
ico destaqueDestaque
Petaxxon Comunicação Online

Cifras.com.br - Melhor e mais completo site de cifras e tablaturas do Brasil Mais de 1 milhão de acordes de músicas cadastradas desde 2003
As informações contidas no nosso site são colaborações de seus usuários e podem conter erros, sendo assim, não nos responsabilizamos sobre nenhuma destas.

close
menos
mais
close
Cor dos acordes:

Cor da letra:

close
Alinhar acordes a direita Alinhar acordes a esquerda Alinhar acordes em baixo Alinhar acordes no topo
close
  Mostrar todos os acordes Esconder acordes muito fáceis Esconder acordes fáceis Esconder acordes intermediários
redimensionar
glossário