Cifras e Tablaturas
Caetano Veloso

Caetano Veloso

Sozinho

Ano: 1999
Album : Prenda Minha
Compositor : (Peninha)

Cifras Cancelar Versão de Impressão
cifras

Caetano Veloso - Sozinho

fixar na tela  
Exibindo: vídeo-aula ver clipes redimensionar

Tom:

D

ver outros tons
   
 
(versão ao vivo)  
(Peninha)  
  
Obs.: O início de todas as frases está sincronizado com a tablatura.  
      Ouça a música para pegar o tempo entre os acordes, e preste  
      atenção nas variações ao longo da música.  
   
  
    F6(9)          Em7             Asus4(7)                      D6(9)  
                                               
E||-----0--0--0--|-----0--2--0--|-----0-----0--|-----0-----0--|-------5--5--|  
B||-----1--1--1--|-----0--0--0--|-----3-----3--|-----3-----3--|-------5--5--|  
G||-----2--2--2--|-----0--0--0--|-----2-----2--|-----2-----2--|-------4--4--|  
D||--------------|--------------|--------------|--------------|-------------|  
A||--------------|--------------|--0-----0-----|--0-----0-----|--5-------5--|  
E||--1-----------|--0-----------|--------------|--------------|-------------|  
  
(intro..)                                                             Às vezes no si_  
  
 Dbm7/5+        Bm                     Bm7   Em        Em/D  
                                                                         
--------5--2--|-------2-2---|--2-2---------|--------------|------------|  
--------5--3--|--3----3-2---|--2-3---3--3--|--0-----0-----|------------|  
-----6-----4--|--4----4-2---|--2-4---4--2--|--0-----0-----|--0-----0---|  
--------------|-------4-4---|--4-4---4--4--|--2---2-----0-|-----0------|  
--4-----------|--2----------|--------2--2--|--------------|------------|  
--------------|-------------|--------------|--0-----------|------------|  
  
  lêncio da noite                                 Eu fico imaginando nós..  
    
 Dbm7(9)           A7                D6(9)          Dbm7/5+      Bm  
                                                                            
-----------------|----------------|--5----5----5-|--------5--2--|--------2----|  
-------5---5---5-|------2---2-----|--5----5----5-|--------5--3--|----3---3----|  
-4-----4---4---4-|------0---0-----|--4----4----4-|-----6--6--4--|----4---4----|  
-5-----5---5---5-|------2---2-----|--------------|--------------|----4--------|  
-4---4-----4-----|--0-0-------0-0-|--5-------5---|--4-----------|--2----------|  
-----------------|----------------|--------------|--------------|-------------|  
  
 dois                                 Eu fico ali sonhando acordado..  
  
                Em            Em/D         A7  
                                                            
----2--0--2--|-------------|------------|-------------|-----------------|  
----3--3--3--|-------------|------------|--2----2---2-|------2----------|  
----4--4--4--|-------------|-------0----|--0----0---0-|------0----------|  
----4--4--4--|-------0-----|--0---------|--2----2---2-|------2----------|  
-------------|-------------|------------|--0----0-----|--0-0------0--1--|  
-------------|--0--------0-|------------|-------------|-----------------|  
  
    juntando         O antes o agora e o depois  
  
  Bm7          Gbm7         Bm7/G                                  Bm7  
                                                                                
-------2----|-------2----|--------2--0-----|-----2--0-----------|-------2----|  
-------3----|--2----2----|--3-----3--3--3--|-----3--3--3--------|--3----3----|  
-------2----|--2----2----|--2-----4-----4--|--4--------4--4--0--|--2----2----|  
-------4----|--2----2----|--4--------------|--0-----------0--0--|--4----4----|  
--2---------|------------|--2--------------|--------------------|--2---------|  
------------|--2---------|------3----------|--3--------3--------|------------|  
  
       Por que você me deixa tão solto?                              Por que você não   
  
  Gbm7          D/E                                    Bm7          Gbm7  
                                                                                 
------2------|-----2-----2-----2--|-----2-----2-----|--2----2----|-------2----|  
--2---2------|-----3-----3-----3--|-----3-----3-----|--3----3----|--2----2----|  
--2---2------|-----2-----2-----2--|-----2-----2-----|--2----2----|--2----2----|  
--2-----4----|-----2-----2-----2--|-----2-----2-----|--4----4----|--2---------|  
-------------|--------------------|-----------------|--2---------|------------|  
--2----------|--0-----0-----0-----|--0-----0-----0--|------------|--2---------|  
  
  cola em mim?                                           Tô me sentindo muito sozinho  
  
 Bm7/G                                      D6(9)         Dbm7/5+  
                                                                       
-----2--0-----------|-----2--0-----------|-------5--5--|-------5----|  
-----------3--------|-----------3--------|--5----5--5--|-------5----|  
--4-----------4--0--|--------------4--0--|--4----4--4--|-------6----|  
--------------------|--------------------|--0----------|------------|  
--------------------|--------------------|--5-------5--|--4---------|  
--3-----------------|--3-----------------|-------------|------------|  
  
                                              Não sou nem quero ser o seu  
  
  Bm7(9) Bm7                     Em           Em/D           Dbm7(9)  
                                                                           
---------2---2-|--2-----------|-------0-----|-------0-----|--------------|  
----2----3-----|--3-3---3-----|--0----0-----|-------0-----|-------5----5-|  
----2----4-----|--2-4---4-2---|--0----0-----|-------0-----|-------4----4-|  
----4----4-----|--4-4---4-4---|--2----------|--0------0---|-------5----5-|  
--2------------|--------2-2---|-----------2-|-------------|--4------4----|  
---------------|--------------|--0----------|-------------|--------------|  
  
    dono                           É que um carinho às vezes cai bem  
  
  A7              D6(9)         Dbm7/5+      Bm  
                                                                          
------0--------|--5----5---5-|-------5--2--|--------2----|----2--0--2--|  
------2---2----|--5----5---5-|-------5--3--|----3---3----|----3--3--3--|  
------0---0----|--4----4---4-|-------6--4--|----4---4----|----4--4--4--|  
------2---2----|-------------|-------------|----4--------|----4--4--4--|  
--0-0-------0--|--5----5-----|--4----------|--2----------|-------------|  
---------------|-------------|-------------|-------------|-------------|  
  
                    Eu tenho os meus desejos e planos         secretos  
  
  Em            Em/D          D6(9)                A7  
                                                                        
-------0-----|-------0-----|-----5-----5-----5--|-----------0--------|  
--0----0-----|-------0-----|-----5-----5-----5--|-----------2--------|  
--0----0-----|-------0-----|-----4-----4-----4--|--------0--0--------|  
--2----------|--0-------0--|-----5-----5-----5--|-----2--------------|  
-----------2-|-------------|--4-----4-----4-----|--0-----------0--1--|  
--0----------|-------------|--------------------|--------------------|  
  
    Só abro pra você mais ninguém  
  
  Bm7          Gbm7         Bm7/G  
                                                                      
-------2----|-------2----|-----2--0-----------|--2--0--------------|  
-------3----|--2----2----|-----3--3--3--------|--3--3--3-----3-----|  
-------2----|--2----2----|-----4--4--4--4--0--|--------4--4--4--4--|  
-------4----|--2----2----|--------------0--0--|-----------0-----0--|  
--2----2----|------------|--------------------|--------------------|  
------------|--2---------|--3--------3--------|--3--------3--------|  
  
    Porque você me esquece e some  
  
  Bm7          Gbm7         Em                          Bm7         Gbm7  
                                                                                  
-------2----|-------2----|-------7----|----7---7---7-|-------2----|-------2----|  
--3----3----|--2----2----|-------7----|----7---7---7-|-------3----|--2----2----|  
--2----2----|--2----2----|-------7----|----7---7---7-|-------2----|--2----2----|  
--4----4----|--2----2----|-------7----|--------------|-------4----|--2----2----|  
--2----2----|------------|-------7----|--------7-----|--2---------|------------|  
------------|--2---------|--0---------|--0-----------|------------|--2---------|  
  
     E se eu me interessar por alguém                      E se ela de repente me ganha  
  
  Bm7/G                                 D6(9)             Dbm7/5+  
                                                                            
-----2--0-----------|--2--0----------|--5----------5---|--5-----5--------|  
-----3--3--3--------|--3--3--3-------|--5-----5----5---|--5-----5----5---|  
-----------4--4--0--|--------4--4----|--4-----4----4---|--6-----6----6---|  
--------------0-----|-----------0----|-----------------|-----------------|  
--------------------|----------------|--5--5-----5-----|--4--4-----4-----|  
--3--------3--------|--3--------3----|-----------------|-----------------|  
  
                                           Quando a gente gosta é claro que a gente  
  
  Bm7/G                            Em           Em/D  
                                                                 
----------2-0---|---------2-----|--0-----0---|--0----0--------|  
--------3-------|---------3-----|--0-----0---|--0----0-----0--|  
------4---------|---------4-----|--0-----0---|--0----0-----0--|  
----------------|---------------|--------2---|--0-------4--2--|  
----------------|---------------|------------|----------------|  
--3-------------|--3--------3---|--0---------|----------------|  
  
  cuida                              Fala que me ama só que é da boca pra  
  
  C                         G7              D             Dbm7/5+  
                                                                         
-----------0---0---------|---------0-----|--2-----2----|--5----5------|  
---------1-------1-------|---------1-----|--3-----3----|--5------5----|  
-------0-----------0-----|---------0-----|--2-----2----|--6------6----|  
---------------------2---|---------------|--0--0-------|--------------|  
--3--------------------3-|---------------|-------------|--4-----------|  
-------------------------|--3--------3---|-------------|--------------|  
  
  fora                                       Ou você me engana ou não está  
  
  Bm   Bm7                          G            A7(9)(11)    D6(9)  
                                                                            
-------------2----|--------------|------------|-------0----|--5----5---5-|  
--3--------3------|--------------|--3----3----|--3----0----|--5----5---5-|  
--4------2--------|--4--2--------|--0----0----|--2----0----|--4----4---4-|  
--4----4----------|--------4--2--|--0----0----|--2---------|-------------|  
--2---------------|--------------|------------|--0----0----|--5----------|  
------------------|--------------|------------|------------|-------------|  
  
  madura             iê iê iê iê    iê         Onde está você agora?  
  
  A7(9)(11)       D6(9)            Dbm7/5+         Bm7/G  
                                                                         
---------------|------5------5--|----5------5----|----2------2--0-----|  
------3---3----|--5---5--5---5--|--5-5----5-5----|----3----3-------3--|  
------2---2----|--4------4------|--6-6----6-6----|----4--4------------|  
------2---2----|----------------|----------------|--------------------|  
--0-0-------0--|--5-5----5-5----|--4---4--4---4--|--------------------|  
---------------|----------------|----------------|--3-----------------|  
  
(fim..)  
  
  Bm7/G             Em           Em/D                 C  
                                                                            
-----2--0--------|--0-----0---|--0--------0-----0--|-------0---0---------|  
-----3--3--3-----|--0-----0---|--0--------0-----0--|-------1-----1-------|  
--4--------4--4--|--0-----0---|--0--------0-----0--|-------0-------0-----|  
--0-----------0--|--------2---|--0--0--4--5--4--2--|-------2---------2---|  
-----------------|------------|--------------------|--3----------------3-|  
--3--------3--3--|--0---------|--------------------|---------------------|  
  
  G7                D            Dbm7/5+     Em         Em - D7 - Bm - Em  
                                                                           
-----0-----0-----|--2----2----|--5----5----|----7--------|--7--5--2--0--|  
--------1-----1--|--3----3----|--5----5----|--7-7---7----|--7--7--3--0--|  
-----------------|--2----2----|--6----6----|--7-7---7----|--7--5--4--0--|  
-----------------|--0---------|------------|--9-----9----|--9--7--4--2--|  
-----------------|------------|--4---------|-------------|--------------|  
--3--------------|------------|------------|--7----------|--------------|  
  
  G             D  
                                        
-------3-----|---------||  
-------0-----|--3------||  
-------0-----|--2------||  
-------------|--2------||  
-------------|--0------||  
--3----------|---------|| 
  

cifra enviadasem correções
enviado porenviada por:Teusalves
top 5 | caetano veloso
top mpb
Outras músicas do artista letras do(a) Caetano Veloso
Top cifras »Top artistas »
Petaxxon Comunicação Online
Cifras.com.br - Melhor e mais completo site de cifras e tablaturas do Brasil
Mais de 1 milhão de acordes de músicas cadastradas desde 2003
As informações contidas no nosso site são colaborações de seus usuários e podem conter erros, sendo assim, não nos responsabilizamos sobre nenhuma destas.
close
menos
mais
close
Cor dos acordes:

Cor da letra:

 

save
close
close
 
redimensionar