Cifras e Tablaturas
Calvin Harris

Calvin Harris

How Deep Is Your Love

Cifras Cancelar Versão de Impressão
cifras

Calvin Harris - How Deep Is Your Love

fixar na tela  
Exibindo: vídeo-aula ver clipes redimensionar
  
Melody 
E|-------5---------------5------------5--------------5------5---| 
B|-5-7-8---7-5-----5-7-8---7----5-7-8---7-5-8--5-7-8------8-----| 
G|--------------------------------------------------------------| 
D|--------------------------------------------------------------| 
A|--------------------------------------------------------------| 
E|--------------------------------------------------------------| 

Chorus 
E|-7-5------------------5-5--------5-5---5--------|  |-7-8-8-7-8-7-5-------| 
B|-----8-7-5----0-0-5-8--------5-8---------8------|  |---------------8-5---| 
G|------------------------------------------------|  | --------------------| 
D|------------------------------------------------|X2|---------------------|x2 
A|------------------------------------------------|  |---------------------| 
E|------------------------------------------------|  |---------------------| 

Verse2 
E|-7-5------------------5-5--------5-5---5------7-5---------| 
B|-----8-7-5----0-0-5-8--------5-8---------8--------8-7-5---| 
G|----------------------------------------------------------| 
D|----------------------------------------------------------| 
A|----------------------------------------------------------| 
E|----------------------------------------------------------| 

Instrumental 
E|-------5-7-|  |-7-5------------| 
B|-5-5-8-----|  |-----8-7-5------| 
G|-----------|  |----------------| 
D|-----------|X3|----------------| 
A|-----------|  |----------------| 
E|-----------|  |----------------| 
  

top 5 | calvin harris
top
Outras músicas do artista letras do(a) Calvin Harris
Top cifras »Top artistas »
Petaxxon Comunicação Online
Cifras.com.br - Melhor e mais completo site de cifras e tablaturas do Brasil
Mais de 1 milhão de acordes de músicas cadastradas desde 2003
As informações contidas no nosso site são colaborações de seus usuários e podem conter erros, sendo assim, não nos responsabilizamos sobre nenhuma destas.
close
menos
mais
close
Cor dos acordes:

Cor da letra:

 

save
close
close
 
redimensionar