Cifras e Tablaturas
Camarones Orquestra Guitarrística
Cifras Cancelar Versão de Impressão Print

Camarones Orquestra Guitarrística - Cabrones

Tom: Em

  • 0:00 / 0:00
  			Ordem da música: 
Riff 1 (6x) 
Riff 2 
Riff 1 
Ponte 
Riff 1 (2x) 
Riff 2 
Riff 1 
Ponte 1 
Solo 
Riff 1 (2x) 
Riff 2 
Riff 1 
Ponte 2 

Riff 1   
 Em 
e|------------------------------ 
b|------------------------------ 
g|------------------------------ 
d|------------------------------ 
a|---------0--0----------0-2-0-- 
e|-0---0-3------3-0--0-3-------3 

 Riff 2 
  Am 
e|------------------------------ 
b|------------------------------ 
g|------------------------------ 
d|---------0--0----------0-2-0-- 
a|-0---0-3------3-0--0-3-------3 
e|------------------------------ 
  
Ponte 1: B5 A5 Em (Riff 1) B5 Em (Riff 1) 

Solo 
  E5    G5 A5 G5 A5 E5 G5 A5 B5 A5 G5 A5 (É igual ao Riff 1, só que usando Power Chords) (Repete algumas vezes essa base)  
e|---------------------------------------------------------------- 
b|--15~\-----------12---------15~\---------------12--------------- 
g|--17b\-----12-14---14-12----17b\------12-14-14b14r--12~~------12 
d|--------/14-----------------------/14--------------------12h14-- 
a|---------------------------------------------------------------- 
e|---------------------------------------------------------------- 

e|-------------------------------------------------- 
b|----------12-----12-----12-----12 ---------------- 
g|-14br-----12-----12-----12-----12-14br--14--12-12- 
d|-----12h14--12h14--12h14--12h14------------------- 
a|-------------------------------------------------- 
e|-------------------------------------------------- 

e|------------------------------------------------------------------ 
b|-----15---15---15---15--------------15---------------------------- 
g|--14b--14b--14b--14b--14brp12-12--12--14br14-12--14b14b14b14b14r-- 
d|----------------------------------------------------------------14 
a|------------------------------------------------------------------ 
e|------------------------------------------------------------------ 

Ponte 2 

B5 A5 B5 A5 B5 A5 Em 
    	

enviado porenviado por: Ywman
cifra enviadaCorrigida por: sem correções
logo top cifrasComente
ico música do artistaMúsicas deste artista
ico curtiuCurtiu?
ico destaqueDestaque
Petaxxon Comunicação Online

Cifras.com.br - Melhor e mais completo site de cifras e tablaturas do Brasil Mais de 1 milhão de acordes de músicas cadastradas desde 2003
As informações contidas no nosso site são colaborações de seus usuários e podem conter erros, sendo assim, não nos responsabilizamos sobre nenhuma destas.

close
menos
mais
close
Cor dos acordes:

Cor da letra:

close
Alinhar acordes a direita Alinhar acordes a esquerda Alinhar acordes em baixo Alinhar acordes no topo
close
  Mostrar todos os acordes Esconder acordes muito fáceis Esconder acordes fáceis Esconder acordes intermediários
redimensionar
glossário