Cifras e Tablaturas
Camarones Orquestra Guitarrística
Cifras Cancelar Versão de Impressão Print

Camarones Orquestra Guitarrística - Pigmalião (camarones)

Tom: Bm

  • 0:00 / 0:00
  			Ordem dos Riffs na Música: 

Riff 1: 1x 
Riff 2: 1x 
Riff 3: 1x 
Riff 2: 1x 
Riff 3: 1x 
Riff 2: 1x 
Riff 3: 1x 
Riff 2: 1x 
Riff 4: 2x 
Riff 5: 2x 
Riff 1: 1x 
Riff 2: 1x 
Riff 3: 1x 
Riff 2: 1x 
Riff 3: 1x 
Riff 2: 1x 
Riff 3: 1x 
Riff 2: 1x 
Riff 4: 2x 
Riff 5: 2x 
Riff 6: 2x 
Riff 7: 1x 
Riff 3: 1x 
Riff 2: 1x 
Riff 3: 1x 
Riff 2: 1x 
Riff 3: 1x 
Riff 2: 1x 
Riff 3: 1x 
Riff 2: 1x 

Riff 1 
e|--------------------- 
b|--------------------- 
g|--------------------- 
d|--------------------- 
a|--x-9-x-8-x-7--5----- 
e|-----------------7--- 

Riff 2 

e|--------------------- 
b|-------------------- 
g|-------------------- 
d|--------------------- 
a|--/9--8--7--5--7--- 
e|------------------ 

Riff 3 

e|--------------------- 
b|-------------------- 
g|-------------------- 
d|--------------------- 
a|--/9--8--7--5------ 
e|---------------7--- 

Riff 4 
  Bm 
e|---7\----------------------------------7\--------------------- 
b|---7\----------------10h12-----10h12---7\--------------------- 
g|----------------9h11-------9h11-------------------9h11---9---7 
d|-------7-9-----------------------------------7-9--------------- 
a|--------------------------------------------------------------- 
e|---------------------------------------------------------------  

Riff 5 
  Bm 
e|-----------------7-10/12-10--------------------- 
b|---/12---10-7-10-------------12---10-7-10--7---- 
g|---------------------------------------------7-- 
d|-----------------------------------------------9 
a|------------------------------------------------ 
e|------------------------------------------------ 

Riff 6 
e|-------------------------------------------------------------------- 
b|-------------------------------------------------------------------- 
g|-------------------------------------------------------------------- 
d|-------------------------------------------------------------------- 
a|--------5---5h7---/9-8-7--5-------5---5h7---/9-8-7--5----/9-8-7--5-- 
e|----5h7---7-------------------5h7---7------------------------------- 

Riff 7 

e|------------- 
b|------------- 
g|------------- 
d|------------- 
a|--/9-8-7--5-- 
e|------------- 
    	

enviado porenviado por: Ywman
cifra enviadaCorrigida por: sem correções
logo top cifrasComente
ico música do artistaMúsicas deste artista
ico curtiuCurtiu?
ico destaqueDestaque
Petaxxon Comunicação Online

Cifras.com.br - Melhor e mais completo site de cifras e tablaturas do Brasil Mais de 1 milhão de acordes de músicas cadastradas desde 2003
As informações contidas no nosso site são colaborações de seus usuários e podem conter erros, sendo assim, não nos responsabilizamos sobre nenhuma destas.

close
menos
mais
close
Cor dos acordes:

Cor da letra:

close
Alinhar acordes a direita Alinhar acordes a esquerda Alinhar acordes em baixo Alinhar acordes no topo
close
  Mostrar todos os acordes Esconder acordes muito fáceis Esconder acordes fáceis Esconder acordes intermediários
redimensionar
glossário