Cifras e Tablaturas
Captain Beefheart And His Magic Band
Cifras Cancelar Versão de Impressão Print

Captain Beefheart And His Magic Band - Frownland

Tom: G#

  • 0:00 / 0:00
  			

Guitar 1 

Riff 1 

0:01 


E |--5-----3-----------5--3----|--5--3--0--0----------------| 
B |--5-----3-----------5--3----|--5--3--0--0----------------| 
G#|--5-----3-----------5--3----|--5--3--0--0----------------| 
E |--5-----3-----------5--3----|--5--3--0--0----------------| 
B |----------------------------|----------------------------| 
E |----------------------------|----------------------------| 


--5-----3-----------5--3----|--5--3--0--0----------------| 
--5-----3-----------5--3----|--5--3--0--0----------------| 
--5-----3-----------5--3----|--5--3--0--0----------------| 
--5-----3-----------5--3----|--5--3--0--0----------------| 
----------------------------|----------------------------| 
----------------------------|----------------------------| 


--5-----3-----------5--3----|--5--3--0--0----------------| 
--5-----3-----------5--3----|--5--3--0--0----------------| 
--5-----3-----------5--3----|--5--3--0--0----------------| 
--5-----3-----------5--3----|--5--3--0--0----------------| 
----------------------------|----------------------------| 
----------------------------|----------------------------| 


--5-----3-----------5--3----|--5--3--0--0----------------| 
--5-----3-----------5--3----|--5--3--0--0----------------| 
--5-----3-----------5--3----|--5--3--0--0----------------| 
--5-----3-----------5--3----|--5--3--0--0----------------| 
----------------------------|----------------------------| 
----------------------------|----------------------------| 


Riff 2 

0:14 


--------0-----5>----------------------------------------0-----3>----------------| 
--0-----0-----5>----------------------------------0-----0-----3>----------------| 
--------------5>----------------------------------------------3>----------------| 
--------------5>----------------------------------------------3>----------------| 
--------------------------------------------------------------------------------| 
--------------------------------------------------------------------------------| 


------------------------0-----2>----------------------------0--0--5--0--0----| 
------------------0-----0-----2>------------------------------------------0>-| 
------------------------------2>---------------------------------------------| 
------------------------------2>---------------------------------------------| 
-----------------------------------------------------------------------------| 
-----------------------------------------------------------------------------| 


--------0-----5>----------------------------------------0-----3>----------------| 
--0-----0-----5>----------------------------------0-----0-----3>----------------| 
--------------5>----------------------------------------------3>----------------| 
--------------5>----------------------------------------------3>----------------| 
--------------------------------------------------------------------------------| 
--------------------------------------------------------------------------------| 


------------------------0-----2>----------------------------0--0--5--0--0-------| 
------------------0-----0-----2>-------------------------------------------0>---| 
------------------------------2>------------------------------------------------| 
------------------------------2>------------------------------------------------| 
--------------------------------------------------------------------------------| 
--------------------------------------------------------------------------------| 

Riff3 
0:20 

--------------17>---------17-------------------------------18>------18----------| 
--16----------------------------17----------16----16----------------------16----| 
--------------------------------------------------------------------------------| 
--------------------------------------------------------------------------------| 
--------------------------------------------------------------------------------| 
--------------------------------------------------------------------------------| 


--------------------|--------20----20------------------------------------| 
---18----16---------|--16-------------18-16----18----16------------------| 
--------------------|----------------------------------------------------| 
--------------------|----------------------------------------------------| 
--------------------|----------------------------------------------------| 
--------------------|----------------------------------------------------| 

Riff 4 
0:25 


----------------------------------------------------| 
-----------10---------------------------------------| 
-----------------10-------------9-------------------| 
--10----------------------10------------------------| 
----------------------------------------------------| 
----------------------------------------------------| 


----------------------------------------------------|-------| 
-----------------10---------------------------------|-------| 
--9--------------------10----------------14L--------|--14---| 
--------10----------------------10------------------|-------| 
----------------------------------------------------|-------| 
----------------------------------------------------|-------| 


--13----------13-16----16---|--13------------|--13----------13-16----16---| 
----------------------------|-----13---------|----------------------------| 
----------------------------|----------------|----------------------------| 
----------------------------|----------------|----------------------------| 
----------------------------|----------------|----------------------------| 
----------------------------|----------------|----------------------------| 


--13----13------------------|--13----------13-16----16---| 
-----------13---------------|----------------------------| 
----------------------------|----------------------------| 
----------------------------|----------------------------| 
----------------------------|----------------------------| 
----------------------------|----------------------------| 


--13-------13-------------13------------------------| 
-----------------13---------------------------------| 
----------------------------------------------------| 
----------------------------------------------------| 
----------------------------------------------------| 
----------------------------------------------------| 


--3-------------------------|----------------------------| 
--x-------------------------|--8-----8-------------------| 
--3-----------------3--6----|-----------6--3-------------| 
----------------------------|----------------------------| 
----------------------------|----------------------------| 
----------------------------|----------------------------| 


--------------------------------------------------------------------------------| 
-----------3-----------------------3--------------------------------------------| 
--3--------------------------------3--------------------------------------------| 
--------------------------------------------------------------------------------| 
--------------------------------------------------------------------------------| 
--------------------------------------------------------------------------------| 

Riff 5 
0:36 

-----3-----1--0-------------|--3--3----------------------| 
--3---------------3---------|--3--3----------------------| 
----------------------------|----------------------------| 
----------------------------|----------------------------| 
----------------------------|----------------------------| 
----------------------------|----------------------------| 


--------------------------------------------------------------------------------| 
-----------------------------8s-11-----------------9----------------------------| 
--6-----------6s-8---------------------------------------------9------9s-12-----| 
--------------------------------------------------------------------------------| 
--------------------------------------------------------------------------------| 
--------------------------------------------------------------------------------| 


-------------------------------------------------------------------------3----3--|L 
-------------------------------------------------------------------------3----3--|L 
--9-----------7-----------7s-9-----------------------7---------------------------| 
---------------------------------------------------------------------------------| 
---------------------------------------------------------------------------------| 
---------------------------------------------------------------------------------| 


--3------------------------------------------------------------------------------| 
--3--------------------------------------------------8s-11---------------------9-| 
--------------------------6-----------6s-8---------------------------------------| 
---------------------------------------------------------------------------------| 
---------------------------------------------------------------------------------| 
---------------------------------------------------------------------------------| 

Riff 6 
0:41 

--6s-8>----------------------8-----------------------6s-9>---------------9s-8>--| 
--6s-8>----------------------8-----------------------6s-9>---------------9s-8>--| 
--6s-8>----------------------8-----------------------6s-9>---------------9s-8>--| 
--6s-8>----------------------8-----------------------6s-9>---------------9s-8>--| 
--------------------------------------------------------------------------------| 
--------------------------------------------------------------------------------| 


--8-----------------------8-----------------------6s-8>----------------------8--| 
--8-----------------------8-----------------------6s-8>----------------------8--| 
--8-----------------------8-----------------------6s-8>----------------------8--| 
--8-----------------------8-----------------------6s-8>----------------------8--| 
--------------------------------------------------------------------------------| 
--------------------------------------------------------------------------------| 


--5-----------------------5-----------------------5------------------------------| 
--5-----------------------5-----------------------5------------------5------5s-6-| 
--5-----------------------5-----------------------5------------------------------| 
--5-----------------------5-----------------------5------------------------------| 
---------------------------------------------------------------------------------| 
---------------------------------------------------------------------------------| 


--------------------------------------------------------------------------------| 
--6s-5-----------------5-----------------5--------------------------------------| 
--------------------------------------------------------------------------------| 
--------------------------------------------------------------------------------| 
--------------------------------------------------------------------------------| 
--------------------------------------------------------------------------------| 


--5-----------------------5-----------------------5------------------------------| 
--5-----------------------5-----------------------5------------------5------5s-6-| 
--5-----------------------5-----------------------5------------------------------| 
--5-----------------------5-----------------------5------------------------------| 
---------------------------------------------------------------------------------| 
---------------------------------------------------------------------------------| 


--------------------------------------------------------------------------------| 
--6s-5-----------------5-----------------5--------------------------------------| 
--------------------------------------------------------------------------------| 
--------------------------------------------------------------------------------| 
--------------------------------------------------------------------------------| 
--------------------------------------------------------------------------------| 


--5-----------------------5-----------------------5------------------------------| 
--5-----------------------5-----------------------5------------------5------5s-6-| 
--5-----------------------5-----------------------5------------------------------| 
--5-----------------------5-----------------------5------------------------------| 
---------------------------------------------------------------------------------| 
---------------------------------------------------------------------------------| 

--------------------------------------------------------------------------------| 
--6s-5-----------------5-----------------5--------------------------------------| 
--------------------------------------------------------------------------------| 
--------------------------------------------------------------------------------| 
--------------------------------------------------------------------------------| 
--------------------------------------------------------------------------------| 


--5-----------------------5-----------------------5------------------------------| 
--5-----------------------5-----------------------5------------------5------5s-6-| 
--5-----------------------5-----------------------5------------------------------| 
--5-----------------------5-----------------------5------------------------------| 
---------------------------------------------------------------------------------| 
---------------------------------------------------------------------------------| 

--------------------------------------------------------------------------------| 
--6s-5-----------------5-----------------5--------------------------------------| 
--------------------------------------------------------------------------------| 
--------------------------------------------------------------------------------| 
--------------------------------------------------------------------------------| 
--------------------------------------------------------------------------------| 

Riff 7 

1:03 

--------------5-----------7--7-----7----------------| 
--------------5-----------7--7-----7----------------| 
--0-----------5-----------7--7-----7----------------| 
--------0-----5-----------7--7-----7----------------| 
----------------------------------------------------| 
----------------------------------------------------| 


--12----10----5-----------7--7-----7----------------| 
--12----10----5-----------7--7-----7----------------| 
--12----10----5-----------7--7-----7----------------| 
--12----10----5-----------7--7-----7----------------| 
----------------------------------------------------| 
----------------------------------------------------| 


--12----10----5-----------7--7-----7----------------| 
--12----10----5-----------7--7-----7----------------| 
--12----10----5-----------7--7-----7----------------| 
--12----10----5-----------7--7-----7----------------| 
----------------------------------------------------| 
----------------------------------------------------| 


--12-10-------12-10-12-10---| 
--12-10-------12-10-12-10---| 
--12-10-------12-10-12-10---| 
--12-10-------12-10-12-10---| 
----------------------------| 
----------------------------| 

Riff 8 
1:11 


----------------------------------------------------| 
--------12>---10----12-12-12s10---------------------| 
--8--10----------------------10-10-10-10------------| 
----------------------------------------------------| 
----------------------------------------------------| 
----------------------------------------------------| 


----------------------------------------------------| 
--------12>---10----12-12-12s10---------------------| 
--8--10----------------------10-10-10-10------------| 
----------------------------------------------------| 
----------------------------------------------------| 
----------------------------------------------------| 


----------------------------------------------------| 
--------12>---10----12-12-12s10---------------------| 
--8--10----------------------10-10-10-10------------| 
----------------------------------------------------| 
----------------------------------------------------| 
----------------------------------------------------| 


----------------------------------------------------| 
--------12>---10----12-12-12s10---------------------| 
--8--10----------------------10-10-10-10----10------| 
----------------------------------------------------| 
----------------------------------------------------| 
----------------------------------------------------| 

Riff 9 
1:16 


---------------------------------------------------------------------------------| 
--------------14-------12----------14----14----14----12--------------------------| 
--9-----12----------------------------------------------------12----------9----9-| 
---------------------------------------------------------------------------------| 
---------------------------------------------------------------------------------| 
---------------------------------------------------------------------------------| 


---------------------------------------------------------------------------------| 
--------------14-------12----------14----14----14----12--------------------------| 
--9-----12----------------------------------------------------12----------9----9-| 
---------------------------------------------------------------------------------| 
---------------------------------------------------------------------------------| 
---------------------------------------------------------------------------------| 


---------------------------------------------------------------------------------| 
--------------14-------12----------14----14----14----12--------------------------| 
--9-----12----------------------------------------------------12----------9----9-| 
---------------------------------------------------------------------------------| 
---------------------------------------------------------------------------------| 
---------------------------------------------------------------------------------| 

---------------------------------------------------------------------------------| 
--------------14-------12----------14----14----14----12--------------------------| 
--9-----12----------------------------------------------------12-------9-------9-| 
---------------------------------------------------------------------------------| 
---------------------------------------------------------------------------------| 
---------------------------------------------------------------------------------| 

Riff 10 


--9-------------------------------------------------| 
--9-----------------9-----------9--9--9-------------| 
--9--------------------9--9--------------9--9-------| 
--------------9-------------------------------------| 
----------------------------------------------------| 
----------------------------------------------------| 


--------------------------------------------------------------------------------| 
--10s9-----------------------------------9--9--9-----------9--9--9-----------7--| 
-----------------9-----9-----9--------------------------------------------------| 
--------------------------------------------------------------------------------| 
--------------------------------------------------------------------------------| 
--------------------------------------------------------------------------------| 


------------------9-------|--9-------------------------------------------------| 
---7s-9-----7-------------|--9-----------------9-----------9--9--9-------------| 
--------------------------|--9--------------------9--9--------------9----------| 
--------------------------|--------------9-------------------------------------| 
--------------------------|----------------------------------------------------| 
--------------------------|----------------------------------------------------| 


--------------------------------------------------------------------------------| 
--9-----9-----9-----------------------9s-11----------9s-11----------7M-7M-7M----| 
--------------------9-----9-----------------------------------------------------| 
--------------------------------------------------------------------------------| 
--------------------------------------------------------------------------------| 
--------------------------------------------------------------------------------| 


---------------7M---------| 
7M-7M-7M-7M---------------| 
--------------------------| 
--------------------------| 
--------------------------| 
--------------------------| 

Riff 10 
1:15 


--9------------------------------------------------------------------------------| 
--9-----------------------------------9-----------------9-----9--------9-----9---| 
--9--------------------------------------------9-------------------------------9-| 
--------------------------9------------------------------------------------------| 
---------------------------------------------------------------------------------| 
---------------------------------------------------------------------------------| 

--------------------------------------------------------------------------------| 
--9-----9--------9-----9--------------------------------------------------------| 
--------------------------------9-----------------9--------------9--------------| 
--------------------------------------------9--9-----------9--9-----------9-----| 
--------------------------------------------------------------------------------| 
--------------------------------------------------------------------------------| 


--------------------------|-------|| 
------9>------------------|--11---|| 
------------------9-------|-------|| 
9-------------------------|-------|| 
--------------------------|-------|| 
--------------------------|-------|| 


Guitar 2 

Slide, tuned to open E (4th string seems tuned to D) 

Riff 1 

0:01 


E |----------------------------------------------------| 
B |--------------3--------1--------------1L----1L------| 
G#|----------------------------------------------------| 
D |--5-----3--5--------------------5--3----------------| 
B |----------------------------------------------------| 
E |----------------------------------------------------| 


----------------------------------------------------| 
--1-----------3--------------1----------------------| 
----------------------------------------------------| 
--------5--3-----------5--3-------------------------| 
----------------------------------------------------| 
----------------------------------------------------| 


----------------------------------------------------| 
--------------3--------1--------------1L----1L------| 
----------------------------------------------------| 
--5-----3--5--------------------5--3----------------| 
----------------------------------------------------| 
----------------------------------------------------| 


----------------------------------------------------| 
--1-----------3--------------1----------------------| 
----------------------------------------------------| 
--------5--3-----------5--3-------------------------| 
----------------------------------------------------| 
----------------------------------------------------| 


----------------------------------------------------| 
--------------3--------1--------------1L----1L------| 
----------------------------------------------------| 
--5-----3--5--------------------5--3----------------| 
----------------------------------------------------| 
----------------------------------------------------| 


----------------------------------------------------| 
--1-----------3--------------1----------------------| 
----------------------------------------------------| 
--------5--3-----------5--3-------------------------| 
----------------------------------------------------| 
----------------------------------------------------| 


----------------------------------------------------| 
--------------3--------1--------------1L----1L------| 
----------------------------------------------------| 
--5-----3--5--------------------5--3----------------| 
----------------------------------------------------| 
----------------------------------------------------| 


----------------------------------------------------| 
--1-----------3--------------1----------------------| 
----------------------------------------------------| 
--------5--3-----------5--3-------------------------| 
----------------------------------------------------| 
----------------------------------------------------| 

Riff 2 

0:13 


--------0-----5>----------------------------------------0-----3>----------------| 
--0-----0-----5>----------------------------------0-----0-----3>----------------| 
--------------5>----------------------------------------------3>----------------| 
--------------5>----------------------------------------------3>----------------| 
--------------------------------------------------------------------------------| 
--------------------------------------------------------------------------------| 


------------------------0-----2>-------------------------------0--0--5--0--0-----| 
------------------0-----0-----2>----------------------------------------------0--| 
------------------------------2>-------------------------------------------------| 
------------------------------2>-------------------------------------------------| 
---------------------------------------------------------------------------------| 
---------------------------------------------------------------------------------| 


--------0-----5>----------------------------------------0-----3>----------------| 
--0-----0-----5>----------------------------------0-----0-----3>----------------| 
--------------5>----------------------------------------------3>----------------| 
--------------5>----------------------------------------------3>----------------| 
--------------------------------------------------------------------------------| 
--------------------------------------------------------------------------------| 


------------------------0-----2>-------------------------------0--0--5--0--0-----| 
------------------0-----0-----2>----------------------------------------------0--| 
------------------------------2>-------------------------------------------------| 
------------------------------2>-------------------------------------------------| 
---------------------------------------------------------------------------------| 
---------------------------------------------------------------------------------| 


--------0-----5>----------------------------------------0-----3>----------------| 
--0-----0-----5>----------------------------------0-----0-----3>----------------| 
--------------5>----------------------------------------------3>----------------| 
--------------5>----------------------------------------------3>----------------| 
--------------------------------------------------------------------------------| 
--------------------------------------------------------------------------------| 


------------------------0-----2>-------------------------------0--0--5--0--0-----| 
------------------0-----0-----2>----------------------------------------------0--| 
------------------------------2>-------------------------------------------------| 
------------------------------2>-------------------------------------------------| 
---------------------------------------------------------------------------------| 
---------------------------------------------------------------------------------| 


--------0-----5>----------------------------------------0-----3>----------------| 
--0-----0-----5>----------------------------------0-----0-----3>----------------| 
--------------5>----------------------------------------------3>----------------| 
--------------5>----------------------------------------------3>----------------| 
--------------------------------------------------------------------------------| 
--------------------------------------------------------------------------------| 


------------------------0-----2>-------------------------------0--0--5--0--0-----| 
------------------0-----0-----2>----------------------------------------------0--| 
------------------------------2>-------------------------------------------------| 
------------------------------2>-------------------------------------------------| 
---------------------------------------------------------------------------------| 
---------------------------------------------------------------------------------| 

Riff 3 

0:26 


----------------------------| 
----------------------------| 
----------------------------| 
--5--------------------5----| 
-----3--5-----3--5--6-------| 
----------------------------| 


----------------------------------------------------| 
----------------------------------------------------| 
----------------------------------------------------| 
--2-----2h-5--2-------------------------------------| 
--------------------------3-----5-------------------| 
----------------------------------------------------| 


----------------------------| 
----------------------------| 
----------------------------| 
-----------------------5----| 
--3--5--------3--5--6-------| 
----------------------------| 


----------------------------------------------------| 
----------------------------------------------------| 
----------------------------------------------------| 
--2-----2h-5--2-------------------------------------| 
--------------------------3-----5-------------------| 
----------------------------------------------------| 


----------------------------| 
----------------------------| 
----------------------------| 
-----------------------5----| 
--3--5--------3--5--6-------| 
----------------------------| 


----------------------------------------------------| 
----------------------------------------------------| 
----------------------------------------------------| 
--2-----2h-5--2-------------------------------------| 
--------------------------3-----5-------------------| 
----------------------------------------------------| 


----------------------------| 
----------------------------| 
----------------------------| 
-----------------------5----| 
--3--5--------3--5--6-------| 
----------------------------| 


----------------------------------------------------| 
----------------------------------------------------| 
----------------------------------------------------| 
--2-----2h-5--2-------------------------------------| 
--------------------------3-----5-------------------| 
----------------------------------------------------| 

Riff 4 

0:37 


--------------------------------------------------------------------------------| 
--------------------------------------------------------------------------------| 
--------------------------------------------------------------3-----------------| 
--------------------------------------------------------------------------------| 
--3-----------5-----------------------------------3-----------------------------| 
--------------------------------------------------------------------------------| 


--------------------| 
--------------------| 
1-------------------| 
---------5----------| 
--------------------| 
--------------------| 


--------------------------------------------------------------------------------| 
--------------------------------------------------------------------------------| 
-----------------------------------------------------------------------3--------| 
-----------5-----------------------5--------------------------------------------| 
--3--------------------3-----------------------------------3--------------------| 
--------------------------------------------------------------------------------| 


--------------------| 
--------------------| 
---------1----------| 
--------------------| 
--------------------| 
--------------------| 


--------------------------------------------------------------------------------| 
--------------------------------------------------------------------------------| 
--------------------------------------------------------------3-----------------| 
--5-----------------5-----------------------------------------------------------| 
-----------3--------------------------------------3-----------------------------| 
--------------------------------------------------------------------------------| 


--------------------| 
--------------------| 
1-------------------| 
---------5----------| 
--------------------| 
--------------------| 


--------------------------------------------------------------------------------| 
--------------------------------------------------------------------------------| 
-----------------------------------------------------------------------3--------| 
-----------5-----------------------5--------------------------------------------| 
--3--------------------3-----------------------------------3--------------------| 
--------------------------------------------------------------------------------| 


--------------------| 
--------------------| 
---------1----------| 
--------------------| 
--------------------| 
--------------------| 


--------------------------------------------------------------------------------| 
--------------------------------------------------------------------------------| 
--------------------------------------------------------------3-----------------| 
--5-----------------5-----------------------------------------------------------| 
-----------3--------------------------------------3-----------------------------| 
--------------------------------------------------------------------------------| 


--------------------| 
--------------------| 
1-------------------| 
---------5----------| 
--------------------| 
--------------------| 


--------------------------------------------------------------------------------| 
--------------------------------------------------------------------------------| 
-----------------------------------------------------------------------3--------| 
-----------5-----------------------5--------------------------------------------| 
--3--------------------3-----------------------------------3--------------------| 
--------------------------------------------------------------------------------| 


--------------------| 
--------------------| 
---------1----------| 
--------------------| 
--------------------| 
--------------------| 


--------------------------------------------------------------------------------| 
--------------------------------------------------------------------------------| 
--------------------------------------------------------------3-----------------| 
--5-----------------5-----------------------------------------------------------| 
-----------3--------------------------------------3-----------------------------| 
--------------------------------------------------------------------------------| 


--------------------| 
--------------------| 
1-------------------| 
---------5----------| 
--------------------| 
--------------------| 


--------------------------------------------------------------------------------| 
--------------------------------------------------------------------------------| 
-----------------------------------------------------------------------3--------| 
-----------5-----------------------5--------------------------------------------| 
--3--------------------3-----------------------------------3--------------------| 
--------------------------------------------------------------------------------| 


--------------------| 
--------------------| 
---------1----------| 
--------------------| 
--------------------| 
--------------------| 

                                                Riff 5 

                                                0:50 

--------------------------------------------------------------------------------| 
--------------------------------------------------------------------------------| 
--------------------------------------------------3-----------------------3-----| 
--5-----------------5-----------------------------3-----------------------3-----| 
-----------3--------------------------------------3-----------------------3-----| 
--------------------------------------------------------------------------------| 


----------------------------------------------------| 
----------------------------------------------------| 
--3-------------------------------------------------| 
--3-------------------------------------------------| 
--3-----------3-----3-----3--------3--------3L------| 
----------------------------------------------------| 


----------------|----------------------------------------------------| 
----------------|----------------------------------------------------| 
--------3--3----|--3-------------------------------------------------| 
--------3--3----|--3-------------------------------------------------| 
--3-----3--3----|--3-----------3-----3-----3--------3--------3L------| 
----------------|----------------------------------------------------| 


----------------|----------------------------------------------------| 
----------------|----------------------------------------------------| 
--------3--3----|--3-------------------------------------------------| 
--------3--3----|--3-------------------------------------------------| 
--3-----3--3----|--3-----------3-----3-----3--------3--------3L------| 
----------------|----------------------------------------------------| 


----------------|----------------------------------------------------| 
----------------|----------------------------------------------------| 
--------3--3----|--3-------------------------------------------------| 
--------3--3----|--3-------------------------------------------------| 
--3-----3--3----|--3-----------3-----3-----3--------3--------3-------| 
----------------|----------------------------------------------------| 

Riff 6 

1:03 


----------------------------------------------------| 
----------------------------------------------------| 
--------------------------------3--------1----------| 
----------------------------------------------------| 
--3-----------------------3-------------------------| 
----------------------------------------------------| 


--------------------------------------------------------------------------------| 
--------------------------------------------------------------------------------| 
--------------------------------------------3-----------------1-----------------| 
--5-----------------5-----------------------------------------------------------| 
-----------3--------------------3-----------------------------------------------| 
--------------------------------------------------------------------------------| 

                                                Riff 7 
                                                1:10 


--------------------|----------------------------------------------------| 
--------------------|----------------------------------------------------| 
--------------------|--------------------------------3--------1----------| 
5-------------------|--5-------------------------------------------------| 
---------3----------|--------------------------3-------------------------| 
--------------------|----------------------------------------------------| 


--------------------------------------------------------------------------------| 
--------------------------------------------------------------------------------| 
--------------------------------------------3-----------------1-----------------| 
--5-----------------5-----------------------------------------------------------| 
-----------3--------------------3-----------------------------------------------| 
--------------------------------------------------------------------------------| 


--------------------|----------------------------------------------------| 
--------------------|----------------------------------------------------| 
--------------------|--------------------------------3-----1-------------| 
5-------------------|--5-----------------------------------------5-------| 
---------3----------|--------------------------3--------------------5----| 
--------------------|----------------------------------------------------| 


----------------------------------------------------| 
----------------------------------------------------| 
--------------------------------------3--1----------| 
--5-----5--3--0--------0>-5-----0--0----------------| 
----------------------------------------------------| 
----------------------------------------------------| 


----------------------------------------------------| 
----------------------------------------------------| 
--------3-----1-------------------------------------| 
--------------------5-----5-----5--3--0--------0>---| 
--3--------------------5----------------------------| 
----------------------------------------------------| 

                                Riff 8 
                                1:16 


----------------------------------------------------| 
----------------------------------------------------| 
--------------3--1----------------------------------| 
--5-----0--0-----------------------0--3--------0----| 
----------------------------------------------------| 
----------------------------------------------------| 


--------------------------------------------------------------------------------| 
-----------------------------------------------------------------x--------------| 
-----------------1>----------------------------------------x--------------------| 
--3-----5-----------------0-----------------------x--------------------x--------| 
--------------------------------------------------------------------------------| 
--------------------------------------------------------------------------------| 


--------------------------------------------------------------------------------| 
--------------------------------------------------------------------------------| 
-----------------------------------------------------------------------------1>-| 
--0-----3-----------------------0-----3-----------------0-----3-----5-----------| 
--------------------------------------------------------------------------------| 
--------------------------------------------------------------------------------| 


--------------------|--------3--------------3----------------------------| 
--------------------|--------3--------------3----------------------------| 
--------------------|--------3--------------3----------------------------| 
------0-------------|--------3--------------3-----------0--3-------------| 
--------------------|-----3--------------3-------------------------------| 
--------------------|----------------------------------------------------| 


--------------------------------------------------------------------------------| 
--------------------------------------------------------------------------------| 
-----------------------------------------------1>-------------------------------| 
--0-----3-----------------0-----3-----5-----------------0-----------------------| 
--------------------------------------------------------------------------------| 
--------------------------------------------------------------------------------| 


--------3--------------3----------------------------| 
--------3--------------3----------------------------| 
--------3--------------3----------------------------| 
--------3--------------3-----------0--3-------------| 
-----3--------------3-------------------------------| 
----------------------------------------------------| 


--8-----------7-----5>----3--------5-----------------5-----------------5--------| 
--------------------------------------------------------------------------------| 
--------------------------------------------------------------------------------| 
--------------------------------------------------------------------------------| 
--------------------------------------------------------------------------------| 
--------------------------------------------------------------------------------| 


--0--3--5-----0--3--5-----3--5--8-----5-------------| 
--------------------------------------5-------------| 
--------------------------------------5-------------| 
----------------------------------------------------| 
----------------------------------------------------| 
----------------------------------------------------| 

Riff 9 
1:24 


--8-----------7-----5>----3--------5-----------------5-----------------5--------| 
--------------------------------------------------------------------------------| 
--------------------------------------------------------------------------------| 
--------------------------------------------------------------------------------| 
--------------------------------------------------------------------------------| 
--------------------------------------------------------------------------------| 

--0--3--5-----0--3--5-----3--5--8-----5-------------| 
--------------------------------------5-------------| 
--------------------------------------5-------------| 
----------------------------------------------------| 
----------------------------------------------------| 
----------------------------------------------------| 


--8-----------7-----5>----3--------5-----------------5-----------------5--------| 
--------------------------------------------------------------------------------| 
--------------------------------------------------------------------------------| 
--------------------------------------------------------------------------------| 
--------------------------------------------------------------------------------| 
--------------------------------------------------------------------------------| 

--0--3--5-----0--3--5-----3--5--8-----5-------------| 
--------------------------------------5-------------| 
--------------------------------------5-------------| 
----------------------------------------------------| 
----------------------------------------------------| 
----------------------------------------------------| 


--5--7--5-----5-----5-------| 
----------------------------| 
----------------------------| 
----------------------------| 
----------------------------| 
----------------------------| 


--0--3--5--------3--5-----3--5--8-----5-------------|| 
--------------------------------------5-------------|| 
--------------------------------------5-------------|| 
----------------------------------------------------|| 
----------------------------------------------------|| 
----------------------------------------------------|| 


Legend 
L - tied note 
x - dead note 
h - hammer on/pull off 
chB/ch - bend 
s - slide 
~ - vibrato 
g - ghost note 
> - accentuated note 
t - trill 
M - palm mute 
. - staccato 
P - popping (bass) 
S - slapping (bass) 
+ - tapping 
W - wide vibrato 
< - fade in 
w - whammy bar 
= - tremolo picking 
v - brush up 
^ - brush down 
V - pick stroke up 
n - pick stroke down 
    	

enviado porenviado por: alyslima
cifra enviadaCorrigida por: sem correções
logo top cifrasComente
ico música do artistaMúsicas deste artista
ico curtiuCurtiu?
ico destaqueDestaque
Petaxxon Comunicação Online

Cifras.com.br - Melhor e mais completo site de cifras e tablaturas do Brasil Mais de 1 milhão de acordes de músicas cadastradas desde 2003
As informações contidas no nosso site são colaborações de seus usuários e podem conter erros, sendo assim, não nos responsabilizamos sobre nenhuma destas.

close
menos
mais
close
Cor dos acordes:

Cor da letra:

close
Alinhar acordes a direita Alinhar acordes a esquerda Alinhar acordes em baixo Alinhar acordes no topo
close
  Mostrar todos os acordes Esconder acordes muito fáceis Esconder acordes fáceis Esconder acordes intermediários
redimensionar
glossário