Cifras e Tablaturas
Cifras Cancelar Versão de Impressão
cifras

Captain Beefheart And His Magic Band - Moonlight On Vermont

fixar na tela  
Exibindo: vídeo-aula ver clipes redimensionar

Tom:

  
TUNING: DGDGBE       
  

Intro 

        PLAYED WITH A SLIDE ON 2ND FINGER 
   |-----------------------------------------| 
E|----------------------------------------------1-1--3-1--3-3------------------|  
B|----------------------------------------------1-1--3-1--3-3------------------|  
G|-----------------------------------------------------------------------------|  
D|-------------3-----3-----3/5--3---------3------------------------------------|   
G|---0--0--1/3---1/3---1/3----------0-1/3---3----------------------------------|  
D|-----------------------------------------------------------------------------|  

               PLAYED WITH SLIDE 
   |--------------------------------------|  
E|-------------------------------------------1-1--3-1--3-3---------------------|  
B|-------------------------------------------1-1--3-1--3-3---------------------|  
G|-----------------------------------------------------------------------------|  
D|----------3-----3-----3/5--3---------3---------------------------------------|   
G|---0--1/3---1/3---1/3----------0-1/3---3-------------------------------------|  
D|-----------------------------------------------------------------------------|  


Verse 

         PLAYED WITH SLIDE 
   |--------------------------------------|  
E|-------------------------------------------1-1--3-1--3-3---------------------|  
B|-------------------------------------------1-1--3-1--3-3---------------------|  
G|-----------------------------------------------------------------------------| 
D|----------3-----3-----3/5--3---------3---------------------------------------|   
G|---0--1/3---1/3---1/3----------0-1/3---3-------------------------------------|  
D|-----------------------------------------------------------------------------|(x2) 

                      SLIDE                           SLIDE              
                 |--------------|               |---------------| 
E|---1-1--3-1--3--1/3--3--3\1-------1-1--3-1--3--1/3--3--3\1-------------------|  
B|---1-1--3-1--3---------------3----1-1--3-1--3---------------3----------------|  
G|-----------------------------------------------------------------------------|  
D|-----------------------------------------------------------------------------|   
G|-----------------------------------------------------------------------------|  
D|-----------------------------------------------------------------------------|  

                            PLAYED WITH SLIDE  
                |-------------------------------------------|      
E|---1-1--3-1--3--1/3--3--3--------/7--5--3--------/7--5--3--------------------|  
B|---1-1--3-1--3---------------3----------------3------------------------------|  
G|-----------------------------------------------------------------------------|  
D|-----------------------------------------------------------------------------|   
G|-----------------------------------------------------------------------------|  
D|-----------------------------------------------------------------------------|  

                                  SLIDE  
                               |---------|      
E|---3-----------------3-------------------------------------------------------|  
B|-----5-3-5--3-5-3-5----5-3---------------------------------------------------|  
G|---------------------------4---3--2--0---------------------------------------|  
D|-------------------------------3--2--0---------------------------------------|   
G|-----------------------------------------------------------------------------|  
D|-----------------------------------------------------------------------------|  

                    PLAYED WITH SLIDE  
    |----------------------------------------------------|      
E|---/7--5--3-3--------------------/7--5--3-3----------------------------------|  
B|----------------3--5--8-8--------------------3--5--8-8-----------------------|  
G|---------------------------7-------------------------------------------------|  
D|-----------------------------------------------------------------------------|   
G|-----------------------------------------------------------------------------|  
D|-----------------------------------------------------------------------------| 



************************************ 

| /  Slide up 
| \  Slide down 

************************************ 
  

top 5 | captain beefheart and his magic band
top rock'n roll
Outras músicas do artista letras do(a) Captain Beefheart And His Magic Band
4.
Peon
Top cifras »Top artistas »
Petaxxon Comunicação Online
Cifras.com.br - Melhor e mais completo site de cifras e tablaturas do Brasil
Mais de 1 milhão de acordes de músicas cadastradas desde 2003
As informações contidas no nosso site são colaborações de seus usuários e podem conter erros, sendo assim, não nos responsabilizamos sobre nenhuma destas.
close
menos
mais
close
Cor dos acordes:

Cor da letra:

 

save
close
close
 
redimensionar