Cifras e Tablaturas
Car Seat Headrest

Car Seat Headrest

Car Seat Headrest

Cifras Cancelar Versão de Impressão
cifras

Car Seat Headrest - Car Seat Headrest

fixar na tela  
Exibindo: vídeo-aula ver clipes redimensionar
  

verse 1 
Tremolo 1 - Left 
e|---------------------------------------------------------------------------| 
B|---------------------------------------------------------------------------| 
G|-/7-------------/9---------/7---------/7-----------------------------------| 
D|--------------------------------------/7-----------------------------------| s 
A|---------------------------------------------------------------------------| 
E|---------------------------------------------------------------------------| 
Tremolo 2 - Right 
e|---------------------------------------------------------------------------| 
B|---------------------------------------------------------------------------| 
G|---------------------------------------7-----------------------------------| s 
D|-/12------------/7---------/9----------------------------------------------| 
A|---------------------------------------------------------------------------| 
E|---------------------------------------------------------------------------| 
it was so obscene                      filled with loathing and religious fervor 



e|---------------------------------------------------------------------------| 
B|--------------------------------------------------/7-----------------------| 
G|----/7---------------------------------------------------------------------| s 
D|----/7---------------------------------------------------------------------| 
A|---------------------------------------------------------------------------| 
E|---------------------------------------------------------------------------| 

e|---------------------------------------------------------------------------| 
B|---------------------------------------------------------------------------| 
G|-----/7------------------------------------------7/2-----------------------| s 
D|---------------------------------------------------------------------------| 
A|---------------------------------------------------------------------------| 
E|---------------------------------------------------------------------------| 
I laid on my friend's bedroom floor for an hour and tried not to piss my pants 



Chorus 1 
(might be a bit tricky to slide this) 
e|---------------------------------------------------------------------------| 
B|-/5----------------------------7--7-------5--5-----3--3-------3--3---------| 
G|--0--------/7---------------------------0---0------------------------------| s 
D|------------0----------------0---0---------------0---0------0---0----------| 
A|---------------------------------------------------------------------------| 
E|---------------------------------------------------------------------------| 
                                                                                  (play 4x) 
e|---------------------------------------------------------------------------| 
B|-------------------------------7--7-------5--5-----3--3-------3--3---------| 
G|----------4/2---------------------------0---0------------------------------| s 
D|-----------------------------0---0---------------0---0------0---0----------| 
A|---------------------------------------------------------------------------| 
E|---------------------------------------------------------------------------| 
     (and then i saw jesus)   whooooooooooo...  are you 


verse 2 
e|---------------------------------------------------------------------------| 
B|---------------------------------------------------------------------------| 
G|--------------------------------------/7-----------------------------------| s 
D|--------------------------------------/7-----------------------------------| 
A|---------------------------------------------------------------------------| 
E|---------------------------------------------------------------------------| 

e|---------------------------------------------------------------------------| 
B|---------------------------------------------------------------------------| 
G|---------------------------------------7-----------------------------------| s 
D|---------------------------------------------------------------------------| 
A|---------------------------------------------------------------------------| 
E|---------------------------------------------------------------------------| 
                            there were people getting drunk, there were people getting high, they 



e|---------------------------------------------------------------------------| 
B|------------------------------------------------------/7-------------------| 
G|----/7---------------------------------------------------------------------| s 
D|----/7---------------------------------------------------------------------| 
A|---------------------------------------------------------------------------| 
E|---------------------------------------------------------------------------| 

e|---------------------------------------------------------------------------| 
B|---------------------------------------------------------------------------| 
G|-----/7-----------------------------------------------/7-------------------| s 
D|-----------------------------------------------------------------/9----/7--| 
A|---------------------------------------------------------------------------| 
E|---------------------------------------------------------------------------| 
were falling to pieces right before my eyes, and i said "mmhmm" a lot 



e|---------------------------------------------------------------------------| 
B|---------------------------------------------------------------------------| 
G|-----------------------------/7--------------/7----------------------------| s 
D|---/9------------------------/7--------------/7----------------------------| 
A|---------------------------------------------------------------------------| 
E|---------------------------------------------------------------------------| 

e|---------------------------------------------------------------------------| 
B|---------------------------------------------------------------------------| 
G|------------------------------/7-------------/7----------------------------| s 
D|---/9----------------------------------------------------------------------| 
A|---------------------------------------------------------------------------| 
E|---------------------------------------------------------------------------| 
                      there was one guy... i didn't even... 



e|---------------------------------------------------------------------------| 
B|---------------------------------------------------------------------------| 
G|--7/2---------------------------2/4/2--------------------------------------| s 
D|---------------------------------------------------------------------------| 
A|---------------------------------------------------------------------------| 
E|---------------------------------------------------------------------------| 

e|---------------------------------------------------------------------------| 
B|---------------------------------------------------------------------------| 
G|---7-----/9---/7---/6------/2----/4----------------------------------------| s 
D|---------------------------------------------------------------------------| 
A|---------------------------------------------------------------------------| 
E|---------------------------------------------------------------------------| 
    "i dont wanna talk about it." 



DISTORTION Pre-Chorus 
e|---------------------------------------------------------------------------| 
B|---------------------------------------------------------------------------| 
G|--/7-------------------------------------------------------/7--------------| s 
D|--/7-------------------------------------------------------/7--------------| 
A|---------------------------------------------------------------------------| 
E|---------------------------------------------------------------------------| 
CLEAN 
e|---------------------------------------------------------------------------| 
B|---------------------------------------------------------------------------| 
G|--/7-------------------------------------------------------/7--------------| s 
D|--/7-------------------------------------------------------/7--------------| 
A|---------------------------------------------------------------------------| 
E|---------------------------------------------------------------------------| 
so there i was, just another shitbag civilian, afraid of the cops... 

  
          lose slide here \/ 
e|---------------------------------------------------------------------------| 
B|-/5----------------------------7--7-------5--5-----3--3-------3--3---------| 
G|--0--------/7---------------------------0---0------------------------------| ns 
D|------------0----------------0---0---------------0---0------0---0----------| 
A|---------------------------------------------------------------------------| 
E|---------------------------------------------------------------------------| 
                                                                                  
e|---------------------------------------------------------------------------| 
B|---------------------------------------------------------------------------| 
G|----------------------------/7---------/6-------/4-------------------------| s 
D|---------------------------------------------------------------------------| 
A|---------------------------------------------------------------------------| 
E|---------------------------------------------------------------------------| 
                   and i grew tired...             then my dad showed up. 

Chorus 2 
e|---------------------------------------------------------------------------| 
B|-------------------------------7--7-------5--5-----3--3-------3--3---------| 
G|----------------------------------------0---0------------------------------| ns 
D|-----------------------------0---0---------------0---0------0---0----------| 
A|---------------------------------------------------------------------------| 
E|---------------------------------------------------------------------------| 

e|---------------------------------------------------------------------------| 
B|-------------------------------7--7-------5--5-----3--3-------3--3---------| 
G|----------------------------------------0---0------------------------------| ns 
D|-----------------------------0---0---------------0---0------0---0----------| 
A|---------------------------------------------------------------------------| 
E|---------------------------------------------------------------------------| 
DISTORT SOLO LEFT 
e|------------------------------10--------------------10---------------------|  | 
B|---------------------------------------------------------------------------|  | 
G|---------------------------------------------------------------------------| s|    these two are the 
D|---------------------------------------------------------------------------|  |    shrieking high notes, 
A|---------------------------------------------------------------------------|   \   though the second stops 
E|---------------------------------------------------------------------------|    \  and begins droning lower 
DISTORT RIGHT                                                                    | notes later. 
e|------------------------------10--------------------7----------------------|    / 
B|---------------------------------------------------------------------------| s / 
G|---------------------------------------------------------------------------|  |   
D|---------------------------------------------------------------------------|  | 
A|---------------------------------------------------------------------------|  |  
E|---------------------------------------------------------------------------|  | 
                              whooooooooooo...  are you 



e|---------------------------------------------------------------------------| 
B|-------------------------------7--7-------5--5-----3--3-------3--3---------| 
G|----------------------------------------0---0------------------------------| ns 
D|-----------------------------0---0---------------0---0------0---0----------| 
A|---------------------------------------------------------------------------| 
E|---------------------------------------------------------------------------| 

e|---------------------------------------------------------------------------| 
B|-------------------------------7--7-------5--5-----3--3-------3--3---------| 
G|----------------------------------------0---0------------------------------| ns 
D|-----------------------------0---0---------------0---0------0---0----------| 
A|---------------------------------------------------------------------------| 
E|---------------------------------------------------------------------------| 

e|------------------------------10-------------10-----10/7-------------------| 
B|---------------------------------------------------------------------------| 
G|---------------------------------------------------------------------------| s 
D|---------------------------------------------------------------------------| 
A|---------------------------------------------------------------------------| 
E|---------------------------------------------------------------------------| 

e|------------------------------10--------9-----------7----------------------| 
B|---------------------------------------------------------------------------| 
G|---------------------------------------------------------------------------| s 
D|---------------------------------------------------------------------------| 
A|---------------------------------------------------------------------------| 
E|---------------------------------------------------------------------------| 
to go against the word of our fathers       



e|---------------------------------------------------------------------------| 
B|-------------------------------7--7-------5--5-----3--3-------3--3---------| 
G|----------------------------------------0---0------------------------------| ns 
D|-----------------------------0---0---------------0---0------0---0----------| 
A|---------------------------------------------------------------------------| 
E|---------------------------------------------------------------------------| 

e|---------------------------------------------------------------------------| 
B|-------------------------------7--7-------5--5-----3--3-------3--3---------| 
G|----------------------------------------0---0------------------------------| ns 
D|-----------------------------0---0---------------0---0------0---0----------| 
A|---------------------------------------------------------------------------| 
E|---------------------------------------------------------------------------| 

e|------------------------------10--------12----------10---------------------| 
B|---------------------------------------------------------------------------| 
G|---------------------------------------------------------------------------| s 
D|---------------------------------------------------------------------------| 
A|---------------------------------------------------------------------------| 
E|---------------------------------------------------------------------------| 

e|------------------------------10--------12----------10---------------------| 
B|---------------------------------------------------------------------------| 
G|---------------------------------------------------------------------------| s 
D|---------------------------------------------------------------------------| 
A|---------------------------------------------------------------------------| 
E|---------------------------------------------------------------------------| 
                       it goes whoooooo... 


e|---------------------------------------------------------------------------| 
B|-------------------------------7--7-------5--5-----3--3-------3--3---------| 
G|----------------------------------------0---0------------------------------| ns 
D|-----------------------------0---0---------------0---0------0---0----------| 
A|---------------------------------------------------------------------------| 
E|---------------------------------------------------------------------------| 

e|---------------------------------------------------------------------------| 
B|-------------------------------7--7-------5--5-----3--3-------3--3---------| 
G|----------------------------------------0---0------------------------------| ns 
D|-----------------------------0---0---------------0---0------0---0----------| 
A|---------------------------------------------------------------------------| 
E|---------------------------------------------------------------------------| 

e|------------------------------10--------12----------10---------------------| 
B|---------------------------------------------------------------------------| 
G|---------------------------------------------------------------------------| s 
D|---------------------------------------------------------------------------| 
A|---------------------------------------------------------------------------| 
E|---------------------------------------------------------------------------| 

e|---------------------------------------------------------------------------| 
B|---------------------------------------------------------------------------| 
G|-----------------------------------------9-----------7---------------------| s 
D|-------------------------------7-------------------------------------------| 
A|---------------------------------------------------------------------------| 
E|---------------------------------------------------------------------------| 
                the scum of the earth- 

Bridge 
e|---------------------------------------------------------------------------| 
B|-------------------------------7--7-------5--5-----3--3-------3--3---------| 
G|----------------------------------------0---0------------------------------| ns 
D|-----------------------------0---0---------------0---0------0---0----------| 
A|---------------------------------------------------------------------------| 
E|---------------------------------------------------------------------------| 

e|---------------------------------------------------------------------------| 
B|------------------------------15--15------14--14---12--12-----12--12-------| ns 
G|---------------------------------------------------------------------------| 
D|-----------------------------12-12------12--12---12-12-----12---12---------| 
A|---------------------------------------------------------------------------| 
E|---------------------------------------------------------------------------| 
                                                                                   x2 
e|------------------------------10--------12--------14/10--------------------| 
B|---------------------------------------------------------------------------| 
G|---------------------------------------------------------------------------| s 
D|---------------------------------------------------------------------------| 
A|---------------------------------------------------------------------------| 
E|---------------------------------------------------------------------------| 

e|---------------------------------------------------------------------------| 
B|---------------------------------------------------------------------------| 
G|-----------------------------------------9-----------7---------------------| s 
D|-------------------------------7-------------------------------------------| 
A|---------------------------------------------------------------------------| 
E|---------------------------------------------------------------------------| 
                                we are just... 
  


e|---------------------------------------------------------------------------| 
B|-------------------------------7--7-------5--5-----3--3-------3--3---------| 
G|----------------------------------------0---0------------------------------| ns 
D|-----------------------------0---0---------------0---0------0---0----------| 
A|---------------------------------------------------------------------------| 
E|---------------------------------------------------------------------------| 

e|---------------------------------------------------------------------------| 
B|------------------------------15--15------14--14---12--12-----12--12-------| 
G|---------------------------------------------------------------------------| ns 
D|-----------------------------12-12------12--12---12-12-----12---12---------| 
A|---------------------------------------------------------------------------| 
E|---------------------------------------------------------------------------| 

e|------------------------------10--------12--------9-10-----7---------------| 
B|---------------------------------------------------------------------------| 
G|---------------------------------------------------------------------------| s 
D|---------------------------------------------------------------------------| 
A|---------------------------------------------------------------------------| 
E|---------------------------------------------------------------------------| 

e|---------------------------------------------------------------------------| 
B|---------------------------------------------------------------------------| 
G|-----------------------------------------9-----------7---------------------| ns 
D|-------------------------------7-------------------------------------------| 
A|---------------------------------------------------------------------------| 
E|---------------------------------------------------------------------------| 
                             we are just... 


e|---------------------------------------------------------------------------| 
B|-------------------------------7--7-------5--5-----3--3-------3--3---------| 
G|----------------------------------------0---0------------------------------| ns 
D|-----------------------------0---0---------------0---0------0---0----------| 
A|---------------------------------------------------------------------------| 
E|---------------------------------------------------------------------------| 

e|---------------------------------------------------------------------------| 
B|------------------------------15--15------14--14---12--12-----12--12-------| 
G|---------------------------------------------------------------------------| ns 
D|-----------------------------12-12------12--12---12-12-----12---12---------| 
A|---------------------------------------------------------------------------| 
E|---------------------------------------------------------------------------| 

e|------------------------------10---------9--------7-------/10--------------| 
B|---------------------------------------------------------------------------| 
G|---------------------------------------------------------------------------| s 
D|---------------------------------------------------------------------------| 
A|---------------------------------------------------------------------------| 
E|---------------------------------------------------------------------------| 

e|---------------------------------------------------------------------------| 
B|---------------------------------------------------------------------------| 
G|-----------------------------------------9-----------7---------------------| s 
D|-------------------------------7-------------------------------------------| 
A|---------------------------------------------------------------------------| 
E|---------------------------------------------------------------------------| 
                           now everybody... 

Bridge 2 
(chords) D A G A 
Drugs are better, drugs are better with 
Friends are better, friends are better with 

clean  
e|---------------------------------------------------------------------------| 
B|---------------------------------------------------------------------------| 
G|-2/7-----------------------------------------------------------------------| S 
D|---------------------------------------------------------------------------| 
A|---------------------------------------------------------------------------| 
E|---------------------------------------------------------------------------| 

e|---------------------------------------------------------------------------| 
B|---------------------------------------------------------------------------| 
G|---------------------------------------------------------------------------| ns 
D|---------------------------------------------------------------------------| 
A|---------------------------------------------------------------------------| 
E|---------------------------------------------------------------------------| 
dist. 
e|--7-------------------6b6.5----------------6b6.5----------------8b8.5------| 
B|---------------------------------------------------------------------------| 
G|---------------------------------------------------------------------------| s 
D|---------------------------------------------------------------------------| 
A|---------------------------------------------------------------------------| 
E|---------------------------------------------------------------------------| 

e|--7-------------------7----------------------7--------------------9--------| 
B|---------------------------------------------------------------------------| 
G|---------------------------------------------------------------------------| s 
D|---------------------------------------------------------------------------| 
A|---------------------------------------------------------------------------| 
E|---------------------------------------------------------------------------| 
   Drugs are better, drugs are better with Friends are better, friends are better with 



all distorted 
e|------------------------------14--14-----12--12----10--10-----12--12-------| 
B|---------------------------------------------------------------------------| 
G|---------------------------------------12---12--------------12---12--------| ns 
D|----------------------------12--12---------------12--12--------------------| 
A|---------------------------------------------------------------------------| 
E|---------------------------------------------------------------------------| 

e|---------------------------------------------------------------------------| 
B|------------------------------15--15------14--14---12--12-----14--14-------| 
G|---------------------------------------------------------------------------| ns 
D|-----------------------------12-12------12--12---12-12-----12---12---------| 
A|---------------------------------------------------------------------------| 
E|---------------------------------------------------------------------------| 

e|------------------------------10---------12-------10------/10--------------| if you want, you can have a 
B|---------------------------------------------------------------------------| second guitar playing the same  
G|---------------------------------------------------------------------------| notes but a quarter or eighth 
D|---------------------------------------------------------------------------| step off, for more dissonance  
A|---------------------------------------------------------------------------| and distortion. (s) 
E|---------------------------------------------------------------------------| 
  
e|---------------------------------------------------------------------------| 
B|---------------------------------------------------------------------------| 
G|-----------------------------------------9-----------7---------------------| s 
D|-------------------------------7-------------------------------------------| 
A|---------------------------------------------------------------------------| 
E|---------------------------------------------------------------------------| 
                                drugs are better... 


e|------------------------------14--14-----12--12----10--10-----12--12-------| 
B|---------------------------------------------------------------------------| 
G|---------------------------------------12---12--------------12---12--------| ns 
D|----------------------------12--12---------------12--12--------------------| 
A|---------------------------------------------------------------------------| 
E|---------------------------------------------------------------------------| 

e|---------------------------------------------------------------------------| 
B|------------------------------15--15------14--14---12--12-----14--14-------| 
G|---------------------------------------------------------------------------| ns 
D|-----------------------------12-12------12--12---12-12-----12---12---------| 
A|---------------------------------------------------------------------------| 
E|---------------------------------------------------------------------------| 

e|------------------------------10---------12-------15------/17--------------| 
B|---------------------------------------------------------------------------| 
G|---------------------------------------------------------------------------| s 
D|---------------------------------------------------------------------------| 
A|---------------------------------------------------------------------------| 
E|---------------------------------------------------------------------------| 
  
e|---------------------------------------------------------------------------| 
B|---------------------------------------------------------------------------| 
G|-----------------------------------------9-----------7-------9-------------| s 
D|-------------------------------7-------------------------------------------| 
A|---------------------------------------------------------------------------| 
E|---------------------------------------------------------------------------| 
                              drugs are better... 


e|---------------------------------------------------------------------------| 
B|---------------------------------------------------------------------------| 
G|---------------------------------------------------------------------------| ns 
D|---------------------------------------------------------------------------| 
A|---------------------------------------------------------------------------| 
E|---------------------------------------------------------------------------| 

e|---------------------------------------------------------------------------| 
B|---------------------------------------------------------------------------| 
G|---------------------------------------------------------------------------| ns 
D|---------------------------------------------------------------------------| 
A|---------------------------------------------------------------------------| 
E|---------------------------------------------------------------------------| 
                                                                                      X2 
e|----17-/-5-/-17-/-5-/-17-/-5-/-17-/-5-/-17-/-5-/-17-/-5-/-17-/-5-/-17-/-5--| 
B|---------------------------------------------------------------------------| 
G|---------------------------------------------------------------------------| s 
D|---------------------------------------------------------------------------| 
A|---------------------------------------------------------------------------| 
E|---------------------------------------------------------------------------| 

e|---------------------------------------------------------------------------| 
B|---------------------------------------------------------------------------| 
G|-----------------------9-----------------7-----------------9---------------| s 
D|-----7---------------------------------------------------------------------| 
A|---------------------------------------------------------------------------| 
E|---------------------------------------------------------------------------| 
       drugs are better than friends... 



e|---------------------------------------------------------------------------| 
B|---------------------------------------------------------------------------| double the bottom guitar 
G|-----------------------------------------9-----------7-------9-------------| 
D|-------------------------------7-------------------------------------------| s 
A|---------------------------------------------------------------------------| 
E|---------------------------------------------------------------------------| 

e|---------------------------------------------------------------------------| 
B|------------------------------15--15------14--14---12--12-----14--14-------| 
G|---------------------------------------------------------------------------| ns 
D|-----------------------------12-12------12--12---12-12-----12---12---------| 
A|---------------------------------------------------------------------------|  
E|---------------------------------------------------------------------------| 

e|----------------------------22-22-22-22--21-21-21--19-19-19--21-21-21------| 
B|---------------------------------------------------------------------------| either oktave pedal this 
G|---------------------------------------------------------------------------| or use a slide. I think he  
D|---------------------------------------------------------------------------| uses a slide in the recording. 
A|---------------------------------------------------------------------------| 
E|---------------------------------------------------------------------------| 
  
e|---------------------------------------------------------------------------| 
B|---------------------------------------------------------------------------| 
G|-----------------------------------------9-----------7-------9-------------| s 
D|-------------------------------7-------------------------------------------| 
A|---------------------------------------------------------------------------| 
E|---------------------------------------------------------------------------| 
                               drugs are better... 



e|---------------------------------------------------------------------------| 
B|---------------------------------------------------------------------------|  
G|-----------------------------------------9-----------7-------9----------7--| s 
D|-------------------------------7-------------------------------------------| 
A|---------------------------------------------------------------------------| 
E|---------------------------------------------------------------------------| 

e|---------------------------------------------------------------------------| 
B|------------------------------15--15------14--14---12--12-----14--14----15-| 
G|---------------------------------------------------------------------------| ns 
D|-----------------------------12-12------12--12---12-12-----12---12------0--| 
A|---------------------------------------------------------------------------| 
E|---------------------------------------------------------------------------| 

e|----------------------------22-22-22-26--21-21-21--19-19-19--17-17-17---17-| 
B|---------------------------------------------------------------------------|  
G|---------------------------------------------------------------------------| s 
D|---------------------------------------------------------------------------|  
A|---------------------------------------------------------------------------| 
E|---------------------------------------------------------------------------| 
  
e|---------------------------------------------------------------------------| 
B|---------------------------------------------------------------------------| 
G|-----------------------------------------9-----------7-------9-----------7-| s 
D|-------------------------------7-------------------------------------------| 
A|---------------------------------------------------------------------------| 
E|---------------------------------------------------------------------------| 
                              drugs are better...                     with... 
************************************ 


| b   Bend 
| /   Slide up 
| \   Slide down 


************************************ 
  

cifra enviadasem correções
enviado porenviada por:hugo_rodrigues
top 5 | car seat headrest
top rock'n roll
Outras músicas do artista letras do(a) Car Seat Headrest
Top cifras »Top artistas »
Petaxxon Comunicação Online
Cifras.com.br - Melhor e mais completo site de cifras e tablaturas do Brasil
Mais de 1 milhão de acordes de músicas cadastradas desde 2003
As informações contidas no nosso site são colaborações de seus usuários e podem conter erros, sendo assim, não nos responsabilizamos sobre nenhuma destas.
close
menos
mais
close
Cor dos acordes:

Cor da letra:

 

save
close
close
 
redimensionar