Cifras e Tablaturas
Carvel

Carvel

For The Birds

Cifras Cancelar Versão de Impressão
cifras

Carvel - For The Birds

fixar na tela  
Exibindo: vídeo-aula ver clipes redimensionar
  

Intro Riff 

e|-------------------------------------------------| 
B|------7---------10------12-----5--------5-----5--| 
G|-------------------------------------------------|  
D|--7/9------9/11----9/11----4/6------4/6---6/7----| x2 
A|-------------------------------------------------| 
E|-------------------------------------------------| 

e|---------| 
B|------7--| 
G|---------| 
D|--7/9----| 
A|---------| 
E|---------| 


Verse 

    F#m    C#m    C#m/A   
e|---2------4---------| 
B|---2------5---------| 
G|---2------6------6--| 
D|---4------6------6--| 
A|---4------4------4--| 
E|---2-------------5--| 
  
    A     F#m    C#m    C#m/A    
e|--5------2------4----------| 
B|--5------2------5----------| 
G|--6------2------6------6---| 
D|---------4------6------6---| x3 
A|--7------4------4------4---| 
E|--5------2-------------5---| 

>The C#m chord is played just before the A, and is played quickly (listen for the bass) 

    F#m    C#m    C#m/A   
e|---2------4---------| 
B|---2------5---------| 
G|---2------6------6--| 
D|---4------6------6--| 
A|---4------4------4--| 
E|---2-------------5--| 

  
Chorus 
  
    B     F#m    C#m     
e|--2------2------4--| 
B|--4------2------5--| 
G|--4------2------6--| 
D|--4------4------6--| x4 
A|--2------4------4--| 
E|---------2---------| 

    B          
e|--2--| 
B|--4--| 
G|--4--| 
D|--4--| 
A|--2--| 
E|-----| 

Hold the B for twice as long as the F#m or C#m 


Intro Riff 

e|-------------------------------------------------| 
B|------7---------10------12-----5--------5-----5--| 
G|-------------------------------------------------|  
D|--7/9------9/11----9/11----4/6------4/6---6/7----| x2 
A|-------------------------------------------------| 
E|-------------------------------------------------| 

e|---------| 
B|------7--| 
G|---------| 
D|--7/9----| 
A|---------| 
E|---------| 


verse 2 

    F#m    C#m    C#m/A   
e|---2------4---------| 
B|---2------5---------| 
G|---2------6------6--| 
D|---4------6------6--| 
A|---4------4------4--| 
E|---2-------------5--| 
  
    A     F#m    C#m    C#m/A    
e|--5------2------4----------| 
B|--5------2------5----------| 
G|--6------2------6------6---| 
D|---------4------6------6---| x3 
A|--7------4------4------4---| 
E|--5------2-------------5---| 

    F#m    C#m    C#m/A   
e|---2------4---------| 
B|---2------5---------| 
G|---2------6------6--| 
D|---4------6------6--| 
A|---4------4------4--| 
E|---2-------------5--| 

  
Chorus 
  
    B     F#m    C#m     
e|--2------2------4--| 
B|--4------2------5--| 
G|--4------2------6--| 
D|--4------4------6--| x4 
A|--2------4------4--| 
E|---------2---------| 

    B        
e|--2--| 
B|--4--| 
G|--4--| 
D|--4--| 
A|--2--| 
E|-----| 


Solo 1 

e|------------------------------|------------------------------| 
B|------------------------------|------------------------------| 
G|----9-11-9-11-11/13-11-9-11-9-|-----9-11-9-11-11/13-11-9-8-9-| 
D|--9---------------------------|---9--------------------------| 
A|------------------------------|------------------------------| 
E|------------------------------|------------------------------| 

e|--------7-----7-----9-----9-----9-----9-----7-----7-----7----7-----| 
B|------7-----7-----7---7-----7-----7-----7-----7-----9-----10---10--| 
G|----9-----9-----9-------9-----9-----9-----9-----9-----9------------| 
D|-------------------------------------------------------------------| 
A|-------------------------------------------------------------------| 
E|-------------------------------------------------------------------| 

e|--------7-----7-----9-----9-----9-----7-----7-----7-----7----7-----| 
B|------7-----7-----7---7-----7-----7-----7-----7-----9-----10---10--| 
G|----9-----9-----9-------9-----9-----9-----9-----9-----9------------| 
D|-------------------------------------------------------------------| 
A|-------------------------------------------------------------------| 
E|-------------------------------------------------------------------| 

Bridge/Small Verse 

No chords (or quiet verse chords) 

Chorus 
  
    B     F#m    C#m     
e|--2------2------4--| 
B|--4------2------5--| 
G|--4------2------6--| 
D|--4------4------6--| x4 
A|--2------4------4--| 
E|---------2---------| 

    B        
e|--2--| 
B|--4--| 
G|--4--| 
D|--4--| 
A|--2--| 
E|-----| 


Solo 2 

e|--------------------------------7--7--|------------------------------------| 
B|------------------------------7---7-7-|------------------------------10--9-| 
G|----9-11-9-11-11/13-11-9-11-9---------|-----9-11-9-11-11/13-11-9-8-9-------| 
D|--9-----------------------------------|---9--------------------------------| 
A|--------------------------------------|------------------------------------| 
E|--------------------------------------|------------------------------------| 

e|-----------------------------------------------------------------------| 
B|------------------------------12b14-14br12-10-9-10-9-------------------| 
G|----9-11-9-11-11/13-11-9-11-9------------------------11----9--8--9-----| 
D|--9-----------------------------------------------------------------9--| 
A|-----------------------------------------------------------------------| 
E|-----------------------------------------------------------------------| 


 
  

cifra enviadasem correções
enviado porenviada por:tarikike
top 5 | carvel
top rock'n roll
Outras músicas do artista letras do(a) Carvel
Top cifras »Top artistas »
Petaxxon Comunicação Online
Cifras.com.br - Melhor e mais completo site de cifras e tablaturas do Brasil
Mais de 1 milhão de acordes de músicas cadastradas desde 2003
As informações contidas no nosso site são colaborações de seus usuários e podem conter erros, sendo assim, não nos responsabilizamos sobre nenhuma destas.
close
menos
mais
close
Cor dos acordes:

Cor da letra:

 

save
close
close
 
redimensionar