Cifras e Tablaturas
Castello Branco

Castello Branco

O Peso Do Meu Coração

Cifras Cancelar Versão de Impressão
cifras

Castello Branco - O Peso Do Meu Coração

fixar na tela  
Exibindo: vídeo-aula ver clipes redimensionar

Tom:

  E|-----------------------------------| 
B|-----------------------------------| 
G|-------4------2--------------------| 
D|------------------------4-------2--| 
A|-----------------------------------| 
E|--3-3-----33------3-3------3-3-----| 


E|----------------------------------------------------------------------| 
B|-------8--------12-----------10---------7--------12-----10-----7------| 
G|----------------------------------------------------------------------| 
D|----------------------------------------------------------------------| 
A|----------------------------------------------------------------------| 
E|--0-0-----0-0---------0-0---------0-0-------0-0-----0-0----0-0----0-0-| 
  

top 5 | castello branco
top rock'n roll
Outras músicas do artista letras do(a) Castello Branco
Top cifras »Top artistas »
Petaxxon Comunicação Online
Cifras.com.br - Melhor e mais completo site de cifras e tablaturas do Brasil
Mais de 1 milhão de acordes de músicas cadastradas desde 2003
As informações contidas no nosso site são colaborações de seus usuários e podem conter erros, sendo assim, não nos responsabilizamos sobre nenhuma destas.
close
menos
mais
close
Cor dos acordes:

Cor da letra:

 

save
close
close
 
redimensionar