Cifras e Tablaturas
Castlevania

Castlevania

Symphony Of The Night

Cifras Cancelar Versão de Impressão

Castlevania - Symphony Of The Night

Tom:

  			Parte 1 

E|--0---------0---------|----------------------|----------------------|----------------------|| 
B|--0----3---------0----|-------0--------------|----------------------|----------------------|| 
G|--0-------------------|--0---------0---------|--2----0----2----2----|----------------------|| 
D|--2-------------------|----------------------|----------------------|--4----0--------------|| 
A|--2--------------2----|-----------------3----|----------------------|----------------------|| 
E|--0-------------------|----------------------|----------------------|--2-------------------|| 

Parte 2 

E|-------7----6---------|--5-------------------|| 
B|--5--------------8----|-------7----8----7----|| 
G|----------------------|----------------------|| 
D|----------------------|----------------------|| 
A|----------------------|----------------------|| 
E|----------------------|----------------------|| 

Parte 3 

E|------------0---------|--7-------------------|------------5----7----| 
B|------------0---------|------------0---------|----------------------| 
G|-------0---------0----|-------0---------0----|-------0--------------| 
D|----------------------|--0-------------------|----------------------| 
A|----------------------|----------------------|--3-------------------| 
E|--0-------------------|----------------------|----------------------| 

E|--3---------2---------|--0---------2----3----|--2-------------------| 
B|----------------------|----------------------|-------0----3----0----| 
G|-------0---------0----|-------0--------------|----------------------| 
D|----------------------|----------------------|----------------------| 
A|--2-------------------|--0-------------------|--2-------------------| 
E|----------------------|----------------------|----------------------| 

E|--0-------------------|--0-------------------|| 
B|-------0---------0----|-------0---------0----|| 
G|------------0---------|------------0---------|| 
D|----------------------|----------------------|| 
A|----------------------|----------------------|| 
E|--0-------------------|----------------------|| 

Parte 4 

E|--7----5----3----5----|--7-------------------|--7----5----3----5----7----| 
B|----------------------|-------7----7----3----|---------------------------| 
G|----------------------|----------------------|---------------------------| 
D|------------5----7----|----------------------|------------5----7---------| 
A|--3-------------------|----------------------|--3------------------------| 
E|----------------------|--7-------------------|----------------------7----| 

E|--10----8----7----0----|-------0---------2----|--3----2--------------| 
B|-----------------------|--0---------0---------|------------0----3----| 
G|-----------------------|----------------------|----------------------| 
D|-----------------------|----------------------|----------------------| 
A|-----------------------|----------------------|-------2--------------| 
E|--10----8----7----0----|----------------------|----------------------| 

E|------------0---------|--0---------2----3----|--7-------------------| 
B|--3----0---------0----|-------0--------------|-------7----7----3----| 
G|----------------------|----------------------|----------------------| 
D|----------------------|----------------------|----------------------| 
A|-------2----0---------|----------------------|----------------------| 
E|----------------------|----------------------|--7-------------------| 

                                                         SLIDE  
E|--7----5----7----3----|----------------------|-------3-----5----2----| 
B|----------------------|-------0--------------|--0--------------------| 
G|----------------------|--0---------0---------|-----------------------| 
D|----------------------|----------------------|-----------------------| 
A|--3--------------3----|-----------------2----|------------------2----| 
E|----------------------|----------------------|-----------------------| 

                           N.H.   N.H.   N.H. 
E|--3----5----3----2----|----------------7------|| 
B|----------------------|---------7-------------|| 
G|----------------------|--7--------------------|| 
D|--5----7----5----4----|-----------------------|| 
A|----------------------|-----------------------|| 
E|----------------------|-----------------------|| 

Parte 5 

E|----------------------|----------------------|----------------------| 
B|--0-------------------|--0---------3---------|--3---------2---------| 
G|-------2---------2----|-------2---------2----|-------2--------------| 
D|------------2---------|----------------------|----------------------| 
A|----------------------|----------------------|--0-------------------| 
E|--0-------------------|----------------------|----------------------| 

E|----------------------|----------------------|----------------------| 
B|------------0---------|------------0---------|--3---------2----3----| 
G|--2--------------2----|-------2---------2----|-------2--------------| 
D|-------2--------------|--2-------------------|----------------------| 
A|----------------------|----------------------|------------0---------| 
E|------------0---------|----------------------|----------------------| 

E|--0-------------------|| 
B|----------------------|| 
G|----------------------|| 
D|--2-------------------|| 
A|----------------------|| 
E|----------------------|| 

Parte 6 

E|--0----2----3----2----|--3----2--------------|--0---------0---------| 
B|----------------------|------------3----0----|-------3---------3----| 
G|----------------------|----------------------|----------------------| 
D|----------------------|----------------------|----------------------| 
A|------------3---------|-------2--------------|--0-------------------| 
E|----------------------|----------------------|-----------------3----| 

E|----------------------|----------------------|-----------------|| 
B|--0-------------------|----------------------|-----------------|| 
G|-------0----2----0----|--2---------0----2----|--4----2----4----|| 
D|----------------------|----------------------|-----------------|| 
A|----------------------|----------------------|--2--------------|| 
E|------------1---------|-------1--------------|-----------------|| 

Parte 7 

E|--0----2----3----2----|--3----5----2---------|-------2----3----2----| 
B|----------------------|-----------------3----|--5-------------------| 
G|----------------------|----------------------|----------------------| 
D|----------------------|----------------------|----------------------| 
A|------------3---------|-------2--------------|--3--------------2----| 
E|----------------------|----------------------|----------------------| 

E|----------------------|----------------------|--0-------------------|| 
B|--3----0--------------|----------------------|--0-------------------|| 
G|------------0---------|----------------------|--0-------------------|| 
D|-----------------4----|--2----4----0---------|--2-------------------|| 
A|------------3---------|-------2---------2----|--2-------------------|| 
E|----------------------|----------------------|--0-------------------|| 
    	
fixar
fixar inscrever-se

enviado porenviado por: lucicamargo
cifra enviadaCorrigida por: sem correções
logo top cifrasComente
ico música do artistaMúsicas deste artista
ico curtiuCurtiu?
ico destaqueDestaque
Petaxxon Comunicação Online

Cifras.com.br - Melhor e mais completo site de cifras e tablaturas do Brasil Mais de 1 milhão de acordes de músicas cadastradas desde 2003
As informações contidas no nosso site são colaborações de seus usuários e podem conter erros, sendo assim, não nos responsabilizamos sobre nenhuma destas.

close
menos
mais
close
Cor dos acordes:

Cor da letra:

close
Alinhar acordes a direita Alinhar acordes a esquerda Alinhar acordes em baixo Alinhar acordes no topo
close
  Mostrar todos os acordes Esconder acordes muito fáceis Esconder acordes fáceis Esconder acordes intermediários
redimensionar
glossário