Cifras e Tablaturas
Catfish And The Bottlemen

Catfish And The Bottlemen

God Gave Her Soul

Cifras Cancelar Versão de Impressão
cifras

Catfish And The Bottlemen - God Gave Her Soul

fixar na tela  
Exibindo: vídeo-aula ver clipes redimensionar

Tom:

   
Capo 2 

Intro 
Guitar 1 
e|----0--0--0--0--0--0--0--0--0--0--0--0--0--0--0--0--| 
B|----------------------------------------------------| 
G|--2--2--2--2--6--6--7--7--2--2--2--2--6--6--7--7----|(x4) 
D|----------------------------------------------------| 
A|----------------------------------------------------| 
E|----------------------------------------------------| 

e|----------5------------------0--| 
B|------5-----5--------5----------| 
G|----6---6-----6----6-------5----|(x4) 
D|--------------------------------| 
A|----------------4-------5-------| 
E|--5-----------------------------| 

(Guitar 2)  
(Strumming pattern DDUD, comes in on 9th bar) 
e|--3-3-3-3-3--3-3-3-3-3--2-2-2-2-2--0-0-0-0-0--| 
B|--0-0-0-0-0--0-0-0-0-0--3-3-3-3-3--1-1-1-1-1--| 
G|--0-0-0-0-0--0-0-0-0-0--4-4-4-4-4--0-0-0-0-0--| 
D|--0-0-0-0-0--0-0-0-0-0--4-4-4-4-4--2-2-2-2-2--| 
A|--2-2-2-2-2--2-2-2-2-2--2-2-2-2-2--3-3-3-3-3--| 
E|--3-3-3-3-3--3-3-3-3-3-------------3-3-3-3-3--| 

verse 1 
(Guitar 1) 
e|----0--0--0--0--0--0--0--0--0--0--0--0--0--0--0--0--| 
B|----------------------------------------------------| 
G|--2--2--2--2--6--6--7--7--2--2--2--2--6--6--7--7----|(x8) 
D|----------------------------------------------------| 
A|----------------------------------------------------| 
E|----------------------------------------------------| 

(Guitar 2) 
e|--3--------3--------3--------3--| 
B|--0--------0--------0--------0--| 
G|--0--------0--------0--------0--| 
D|--0--------0--------0--------0--| 
A|--2--------2--------2--------2--| 
E|--3--------3--------3--------3--| 

e|--3-x-3-x-3-x-3-x-2-x-2-x-0-x-0-x-3-x-3-x-3-x-3-x-2-x-2-x-0-x-0-x--| 
B|--0-x-0-x-0-x-0-x-3-x-3-x-1-x-1-x-0-x-0-x-0-x-0-x-3-x-3-x-1-x-1-x--| 
G|--0-x-0-x-0-x-0-x-4-x-4-x-0-x-0-x-0-x-0-x-0-x-0-x-4-x-4-x-0-x-0-x--|(x2) 
D|--0-x-0-x-0-x-0-x-4-x-4-x-2-x-2-x-0-x-0-x-0-x-0-x-4-x-4-x-2-x-2-x--| 
A|--2-x-2-x-2-x-2-x-2-x-2-x-3-x-3-x-2-x-2-x-2-x-2-x-2-x-2-x-3-x-3-x--| 
E|--3-x-3-x-3-x-3-x---x---x-3-x-3-x-3-x-3-x-3-x-3-x---x---x-3-x-3-x--| 

Chorus 
(Guitar 1) 
e|--5-5-5-5-5-5-5-5-4-4-4-4---------5-5-5-5-5-5-5-5-4-4-4-4----------| 
B|--5-5-5-5-5-5-5-5-5-5-5-5-7-7-7-7-5-5-5-5-5-5-5-5-5-5-5-5-7-7-7-7--| 
G|--6-6-6-6-6-6-6-6-6-6-6-6-7-7-7-7-6-6-6-6-6-6-6-6-6-6-6-6-7-7-7-7--|(x2) 
D|--7-7-7-7-7-7-7-7-6-6-6-6-7-7-7-7-7-7-7-7-7-7-7-7-6-6-6-6-7-7-7-7--| 
A|--7-7-7-7-7-7-7-7-4-4-4-4-5-5-5-5-7-7-7-7-7-7-7-7-4-4-4-4-5-5-5-5--| 
E|--5-5-5-5-5-5-5-5-----------------5-5-5-5-5-5-5-5------------------| 

(Guitar 2) 
e|--3-3-3-3-3-3-3-3-2-2-2-2-0-0-0-0-3-3-3-3-3-3-3-3-2-2-2-2-0-0-0-0--| 
B|--0-0-0-0-0-0-0-0-3-3-3-3-1-1-1-1-0-0-0-0-0-0-0-0-3-3-3-3-1-1-1-1--| 
G|--0-0-0-0-0-0-0-0-4-4-4-4-0-0-0-0-0-0-0-0-0-0-0-0-4-4-4-4-0-0-0-0--|(x2) 
D|--0-0-0-0-0-0-0-0-4-4-4-4-2-2-2-2-0-0-0-0-0-0-0-0-4-4-4-4-2-2-2-2--| 
A|--2-2-2-2-2-2-2-2-2-2-2-2-3-3-3-3-2-2-2-2-2-2-2-2-2-2-2-2-3-3-3-3--| 
E|--3-3-3-3-3-3-3-3---------3-3-3-3-3-3-3-3-3-3-3-3---------3-3-3-3--| 

Post-Chorus 1 
(Guitar 1) 
e|--------5-------------------0-------5-------------------0--| 
B|------5---5----------4------------5---5----------4---------| 
G|----6-------6------6-------7----6-------6------6------7----|(x20 
D|--------------7---------------------------7----------------| 
A|----------------4-------5-------------------4------5-------| 
E|--5---------------------------5----------------------------| 

(Guitar 2) 
e|--3--------3--------3--------3--| 
B|--0--------0--------0--------0--| 
G|--0--------0--------0--------0--| 
D|--0--------0--------0--------0--| 
A|--2--------2--------2--------2--| 
E|--3--------3--------3--------3--| 

verse 2 
(Gutiar 1) 
e|---0--0--0--0--0--0---------0--0--0--0--0--0---------| 
B|---------------------5-7-5--------------------5-7-5--| 
G|--2--2--2--2--6--6--7------2--2--2--2--6--6--7-------|(x2) 
D|-----------------------------------------------------| 
A|-----------------------------------------------------| 
E|-----------------------------------------------------| 

e|--5-x-5-x-5-x-5-x-4-x-4-x---x---x-5-x-5-x-5-x-5-x-4-x-4-x---x---x--| 
B|--5-x-5-x-5-x-5-x-5-x-5-x-7-x-7-x-5-x-5-x-5-x-5-x-5-x-5-x-7-x-7-x--| 
G|--6-x-6-x-6-x-6-x-6-x-6-x-7-x-7-x-6-x-6-x-6-x-6-x-6-x-6-x-7-x-7-x--|(x3) 
D|--7-x-7-x-7-x-7-x-6-x-6-x-7-x-7-x-7-x-7-x-7-x-7-x-6-x-6-x-7-x-7-x--| 
A|--7-x-7-x-7-x-7-x-4-x-4-x-5-x-5-x-7-x-7-x-7-x-7-x-4-x-4-x-5-x-5-x--| 
E|--5-x-5-x-5-x-5-x---x---x---x---x-5-x-5-x-5-x-5-x---x---x---x---x--| 

e|--5-5-5-5-5-5-5-5-5-5-5-5-5-5-5-5-4-4-4-4-4-4-4-4------------------| 
B|--5-5-5-5-5-5-5-5-5-5-5-5-5-5-5-5-5-5-5-5-5-5-5-5-7-7-7-7-7-7-7-7--| 
G|--6-6-6-6-6-6-6-6-6-6-6-6-6-6-6-6-6-6-6-6-6-6-6-6-7-7-7-7-7-7-7-7--| 
D|--7-7-7-7-7-7-7-7-7-7-7-7-7-7-7-7-6-6-6-6-6-6-6-6-7-7-7-7-7-7-7-7--| 
A|--7-7-7-7-7-7-7-7-7-7-7-7-7-7-7-7-4-4-4-4-4-4-4-4-5-5-5-5-5-5-5-5--| 
E|--5-5-5-5-5-5-5-5-5-5-5-5-5-5-5-5----------------------------------| 

(Guitar 2) 
e|--3-x-3-x-3-x-3-x-2-x-2-x-0-x-0-x-3-x-3-x-3-x-3-x-2-x-2-x-0-x-0-x--| 
B|--0-x-0-x-0-x-0-x-3-x-3-x-1-x-1-x-0-x-0-x-0-x-0-x-3-x-3-x-1-x-1-x--| 
G|--0-x-0-x-0-x-0-x-4-x-4-x-0-x-0-x-0-x-0-x-0-x-0-x-4-x-4-x-0-x-0-x--|(x7) 
D|--0-x-0-x-0-x-0-x-4-x-4-x-2-x-2-x-0-x-0-x-0-x-0-x-4-x-4-x-2-x-2-x--| 
A|--2-x-2-x-2-x-2-x-2-x-2-x-3-x-3-x-2-x-2-x-2-x-2-x-2-x-2-x-3-x-3-x--| 
E|--3-x-3-x-3-x-3-x---x---x-3-x-3-x-3-x-3-x-3-x-3-x---x---x-3-x-3-x--| 

e|--3-3-3-3-3-3-3-3-3-3-3-3-3-3-3-3-2-2-2-2-2-2-2-2-0-0-0-0-0-0-0-0--| 
B|--0-0-0-0-0-0-0-0-0-0-0-0-0-0-0-0-3-3-3-3-3-3-3-3-1-1-1-1-1-1-1-1--| 
G|--0-0-0-0-0-0-0-0-0-0-0-0-0-0-0-0-4-4-4-4-4-4-4-4-0-0-0-0-0-0-0-0--| 
D|--0-0-0-0-0-0-0-0-0-0-0-0-0-0-0-0-4-4-4-4-4-4-4-4-2-2-2-2-2-2-2-2--| 
A|--2-2-2-2-2-2-2-2-2-2-2-2-2-2-2-2-2-2-2-2-2-2-2-2-3-3-3-3-3-3-3-3--| 
E|--3-3-3-3-3-3-3-3-3-3-3-3-3-3-3-3-----------------3-3-3-3-3-3-3-3--| 

Post-Chorus 2 
(Guitar 1) 
e|--9--9--9--9--9--9--9--9--9-9-9-9-10-10-12-12-10-9--9--9--9--9--9--9--9--9-9-9-9-10-10-12-12-10--| 
B|--10-10-10-10-10-10-10-10-9-9-9-9-12-12-12-12-12-10-10-10-10-10-10-10-10-9-9-9-9-12-12-12-12-12--| 
G|-------------------------------------------------------------------------------------------------|(x7) 
D|-------------------------------------------------------------------------------------------------| 
A|-------------------------------------------------------------------------------------------------| 
E|-------------------------------------------------------------------------------------------------| 

e|--9--9--9--9--9--9--9--9--12-10-12-10-9----| 
B|--10-10-10-10-10-10-10-10--------------10--| 
G|-------------------------------------------| 
D|-------------------------------------------| 
A|-------------------------------------------| 
E|-------------------------------------------| 

(Guitar 2) 
e|--3-3-3-3-3-3-3-3-2-2-2-2-0-0-0-0-3-3-3-3-3-3-3-3-2-2-2-2-0-0-0-0--| 
B|--0-0-0-0-0-0-0-0-3-3-3-3-1-1-1-1-0-0-0-0-0-0-0-0-3-3-3-3-1-1-1-1--| 
G|--0-0-0-0-0-0-0-0-4-4-4-4-0-0-0-0-0-0-0-0-0-0-0-0-4-4-4-4-0-0-0-0--|(x8) 
D|--0-0-0-0-0-0-0-0-4-4-4-4-2-2-2-2-0-0-0-0-0-0-0-0-4-4-4-4-2-2-2-2--| 
A|--2-2-2-2-2-2-2-2-2-2-2-2-3-3-3-3-2-2-2-2-2-2-2-2-2-2-2-2-3-3-3-3--| 
E|--3-3-3-3-3-3-3-3---------3-3-3-3-3-3-3-3-3-3-3-3---------3-3-3-3--| 

Interlude 
(Guitar 1) 
e|--5--------4---------5--------4-------| 
B|--5--------5----7----5--------5----7--| 
G|--6--------6----7----6--------6----7--|(x2) 
D|--7--------6----7----7--------6----7--| 
A|--7--------4----5----7--------4----5--| 
E|--5------------------5----------------| 

Outro 
(Guitar 1)  
(Comes in on third bar) 
e|--5--------5--------5----5----5--5--5--5--| 
B|--5--------5--------5----5----5--5--5--5--| 
G|--6--------6--------6----6----6--6--6--6--| 
D|--7--------7--------7----7----7--7--7--7--| 
A|--7--------7--------7----7----7--7--7--7--| 
E|--5--------5--------5----5----5--5--5--5--| 

e|----12--12-12-10-9----|  e|----12--12-9h10-12-10-9--| 
B|--10--10----------10--|  B|--10--10-----------------| 
G|----------------------|  G|-------------------------|(x11) 
D|----------------------|  D|-------------------------| 
A|----------------------|  A|-------------------------| 
E|----------------------|  E|-------------------------| 

P.M----------------| 
e|--5-5-5-5-5-5-5-5-5-5-5-5-5--| 
B|--5-5-5-5-5-5-5-5-5-5-5-5-5--| 
G|--6-6-6-6-6-6-6-6-6-6-6-6-6--| 
D|--7-7-7-7-7-7-7-7-7-7-7-7-7--| 
A|--7-7-7-7-7-7-7-7-7-7-7-7-7--| 
E|--5-5-5-5-5-5-5-5-5-5-5-5-5--| 

(Guitar 2) 
e|-----------------------------------|      e|----------------------------| 
B|-----------------------------------|      B|----------------------------| 
G|----------------------------0------|(x3)  G|----------------------------| 
D|------------0h2-0-------------2p0--|      D|------------0h2-0-----------| 
A|------2-2-3-----------2-2-3--------|      A|------2-2-3----------2-2-3--| 
E|--3-3-------------3-3--------------|      E|--3-3-------------3-3-------| 

e|-----------------------------------| 
B|-----------------------------------| 
G|----------------------------0------|(x6) 
D|------------0h2-0-------------2p0--| 
A|------2-2-3-----------2-2-3--------| 
E|--3-3-------------3-3--------------| 

P.M----------------| 
e|--3-3-3-3-3-3-3-3-3-3-3-3-3--| 
B|--0-0-0-0-0-0-0-0-0-0-0-0-0--| 
G|--0-0-0-0-0-0-0-0-0-0-0-0-0--| 
D|--0-0-0-0-0-0-0-0-0-0-0-0-0--| 
A|--2-2-2-2-2-2-2-2-2-2-2-2-2--| 
E|--3-3-3-3-3-3-3-3-3-3-3-3-3--|  
  

top 5 | catfish and the bottlemen
top rock'n roll
Outras músicas do artista letras do(a) Catfish And The Bottlemen
Top cifras »Top artistas »
Petaxxon Comunicação Online
Cifras.com.br - Melhor e mais completo site de cifras e tablaturas do Brasil
Mais de 1 milhão de acordes de músicas cadastradas desde 2003
As informações contidas no nosso site são colaborações de seus usuários e podem conter erros, sendo assim, não nos responsabilizamos sobre nenhuma destas.
close
menos
mais
close
Cor dos acordes:

Cor da letra:

 

save
close
close
 
redimensionar