Cifras e Tablaturas
Chelsea Grin

Chelsea Grin

Four Horsemen

Cifras Cancelar Versão de Impressão
cifras

Chelsea Grin - Four Horsemen

fixar na tela  
Exibindo: vídeo-aula ver clipes redimensionar

Tom:

  
Tuning-Drop E (E B E A D G B E) 

Intro (play first bar once only) 
E|---------------|-----------------------------------------------------------------------------------------| 
B|---------------|-----------------------------------------------------------------------------------------| 
G|---------------|-----------------------------------------------------------------------------------------| 
D|---------------|----------------------------------5\6/5-3-5----------------------------------------------| 
A|---7\8/7-7/5\8-|-----------------------------------------------------------------------------7\8/7-5-7---| 
E|---------------|----------------------------------3\4/3-1-3----------------------------------------------| 
B|---5\6/5-5/3\6-|-----------------------------------------------------------------------------5\6/5-3-5---| 
E|-0-------------|-0--0-0-0-0--0-12--0-0-0-0-13-0--0----------0-0--0-0-0-0-0--0-12--0-0-0-13-0--0-----------| 
Pm -                  - - -    -                              -    - - - -    - 

Verse 
Rhythm 
E|----------------------------------| 
B|----------------------------------| 
G|----------------------------------| 
D|----------------------------------| 
A|----------------------------------| 
E|----------------------------------| 
B|-0-0-0-0-----0-0-0-0--------------| 
E|-0-0-0-0-----0-0-0-0-----0-1--0-1-| 
Pm - - - -     - - - - 

Lead 
E|-------------------------------------------------------------------------| 
B|-------------------------------------------------------------------------| 
G|-------------------------------------------------------------------------| 
D|-------------------------------------------------------------------------| 
A|-------------------------------------------------------------------------| 
E|-------------------------------------------------------------------------| 
B|-5-5-5-5-5-5-5-5-5-5-5-5-5-5-5-5-5-5-5-5-5-5-5-5-5-5-5-5-5-5-5-5-5-5-5-5-| 
E|-------------------------------------------------------------------------| 
Pm - - - - - - - - - - - - - - - - - - - - - - - - - - - - - - - - - - - - 

Chorus 
E|---------------------------------------------------------------------------------------------- 
B|---------------------------------------------------------------------------------------------- 
G|---------------------------------------------------------------------------------------------- 
D|---------------------------------------------------------------------------------------------- 
A|---------------------------------------------------------------------------------------------- 
E|---------------------------------------------------------------------------------------------- 
B|---------------------------------------------------------------------------------------------- 
E|-1-1-1-1--1-1-1-1----1-1-1-1--1-1-1-1--1-1-1-1-0-0-0-0--0-0-0-0----0-0-0-0--0-0-0-0--0-0-0-0- 


Bridge/Breakdown riff 1 
(This is the general idea of this riff) 
E|-------------------------------------------------------------------------------------- 
B|-------------------------------------------------------------------------------------- 
G|-------------------------------------------------------------------------------------- 
D|-------------------------------------------------------------------------------------- 
A|-------------------------------------------------------------------------------------- 
E|--------------0--------------------0---------------------0---------------------0------ 
B|-0-0-0-0--0-0---0-----0-0-0-0--0-0-----0-0--0-0-0-0--0-0---0---0--0-0-0-0--0-0----0-0- 
E|-0-0-0-0--0-0---------0-0-0-0--0-0-----0-0--0-0-0-0--0-0-------0--0-0-0-0--0-0----0-0- 
Pm - - - -  - - 

Bridge/Breakdown riff 2 
(This bit plays when the above riff kicks in) 
E|-------------------| 
B|-------------------| 
G|-------------------| 
D|-------------------| 
A|-------------------| 
E|-8--------7--------| 
B|-6--------5--------| 
E|-------------------| 

Bridge/Breakdown riff 3 
(This plays later on in the similar riff from before, only one guitar)  
E|-------------------------------------------------------------------------------------------| 
B|-------------------------------------------------------------------------------------------| 
G|-------------------------------------------------------------------------------------------| 
D|-------------------------------------------------------------------------------------------| 
A|-------------------------------------------------------------------------------------------| 
E|--------------0------------------------0-------------------0------------------------0------| 
B|-0-0-0-0--0-0---0--0-0-0--0-0-0-0--0-0---0-0--0-0-0-0--0-0---0--0-0-0--0-0-0-0--0-0----0-0-| 
E|-0-0-0-0--0-0------0-0-0--0-0-0-0--0-0---0-0--0-0-0-0--0-0------0-0-0--0-0-0-0--0-0----0-0-| 
Pm - - - -  - -      - - -  - - - -  - -   - -  - - - -  - -      - - -  - - - -  - -    - - 

Re-intro 
play the first octaves the first time and then return to the intro) 
E|-------------------------------------------------------------------------------------------| 
B|-------------------------------------------------------------------------------------------| 
G|-------------------------------------------------------------------------------------------| 
D|------------------------------------5\6/5-3-5----------------------------------------------| 
A|---------------------------------------------------------------------------------7\8/7-5-7---| 
E|------------------------------------3\4/3-1-3----------------------------------------------| 
B|---------------------------------------------------------------------------------5\6/5-3-5---| 
E|-0--0-0-0-0--0-12--0-0-0-0-13-0--0------------0-0--0-0-0-0-0--0-12--0-0-0-13-0--0-----------| 
Pm    - - -    -                                -    - - - -    - 


Outro/breakdown 
(The harmony on the fretted notes is most likely a minor 3rd 
E|------------------------------------------------------------| 
B|------------------------------------------------------------| 
G|------------------------------------------------------------| 
D|------------------------------------------------------------| 
A|------------------------------------------------------------| 
E|------------------------------------------------------------| 
B|------------------------------------------------------------| 
E|-0------0------12/13-13-13-12/13-13-13--0-0-0-0---1-1-1-1--0| 
 
  

top 5 | chelsea grin
top rock'n roll
Outras músicas do artista letras do(a) Chelsea Grin
Top cifras »Top artistas »
Petaxxon Comunicação Online
Cifras.com.br - Melhor e mais completo site de cifras e tablaturas do Brasil
Mais de 1 milhão de acordes de músicas cadastradas desde 2003
As informações contidas no nosso site são colaborações de seus usuários e podem conter erros, sendo assim, não nos responsabilizamos sobre nenhuma destas.
close
menos
mais
close
Cor dos acordes:

Cor da letra:

 

save
close
close
 
redimensionar