Cifras e Tablaturas
Chelsea Wolfe

Chelsea Wolfe

Iron Moon

Cifras Cancelar Versão de Impressão
cifras

Chelsea Wolfe - Iron Moon

fixar na tela  
Exibindo: vídeo-aula ver clipes redimensionar
  
Intro 

rythm 
----------------------------------------------- 
----------------------------------------------- 
----------------------------------------------- 
-5----5-5-5-5----5-5-5-0----0-0-0-0----0-0///-- 
-5----5-5-5-5----5-5-5-0----0-0-0-0----0-0///-- 
-5----5-5-5-7----7-7-7-0----0-0-0-0----0-0///-- x4 


lead 
-------------- 
-3------------ 
-5bbb7-------- 
-------------- 
-------------- 
-------------- x4 


verse (finger picking) 

-------------------------------------------- 
-------------------------------------------- 
-10---------9-----------9----------7-------- 
-----10---------10---------10---------7----- 
-12-----12--12------12--10-----10--9-----9-- 
-------------------------------------------- x8 

second guitar enters after 3 times 

----------------------------------------------- 
-10----------10---------12----------10--------- 
-----10----------9----------12----------11----- 
-10------10--10-----10--12------12--12------12- 
----------------------------------------------- 
----------------------------------------------- x5 


Chorus 

----------------------------- 
----------------------------- 
----------------------------- 
-7~---10~---9~--9-4-4-4------ 
-3~---7~----5~--5-0-0-0------ 
-3~---7~----5~--5-0-0-0------ x4 


intro-theme 

verse 

Chorus x2 (second time hit each 8th) 

verse 

intro-theme x8 
  

top 5 | chelsea wolfe
top pop music
Outras músicas do artista letras do(a) Chelsea Wolfe
2.
Vex
Top cifras »Top artistas »
Petaxxon Comunicação Online
Cifras.com.br - Melhor e mais completo site de cifras e tablaturas do Brasil
Mais de 1 milhão de acordes de músicas cadastradas desde 2003
As informações contidas no nosso site são colaborações de seus usuários e podem conter erros, sendo assim, não nos responsabilizamos sobre nenhuma destas.
close
menos
mais
close
Cor dos acordes:

Cor da letra:

 

save
close
close
 
redimensionar