Cifras e Tablaturas
Chet Atkins

Chet Atkins

Ill Say She Does

Cifras Cancelar Versão de Impressão
cifras

Chet Atkins - Ill Say She Does

fixar na tela  
Exibindo: vídeo-aula ver clipes redimensionar
  
                           C 
e|---------------------|-------0--------------0--|----------------------| 
B|---------------------|----------1h-3--1--------|----------------------| 
G|---------------------|-------0-----------0-----|-------0--------------| 
D|---------------------|-------2-----------2-----|-------2--------------| 
A|-----------0----2----|--3----------------------|--3---------2----1----| 
E|------3--------------|-------------3-----------|----------------------| 

         A7                                           Dm 
e|-------0--------------0--|---------------0-------|------------0----------| 
B|----------2h-3--2--------|-------2----3----------|-------6---------------| 
G|-------0-----------0-----|-------0----------0----|-------7-------7--7----| 
D|-------2-----------2-----|-------2----------2----|-------7----------7----| 
A|--0----------------------|--0--------------------|--5--------------------| 
E|-------------0-----------|------------0----------|------------5----------| 

    G7                        C 
e|--3--------3-----1-------|--1--------0------------|----------------------| 
B|-----0-------------------|-----1------------------|----------------------| 
G|--------0-----------0----|--------0----------0----|----------------------| 
D|--------3-----------3----|--------2----------2----|----------------------| 
A|-------------------------|--3---------------------|--3---------0----2----| 
E|--3-----------3----------|--------------3---------|-------3--------------| 

                                                          A7 
e|-------0--------------0--|----------------------|-------0--------------0--| 
B|----------1h-3--1--------|----------------------|----------2h-3--2--------| 
G|-------0-----------0-----|-------0--------------|-------0-----------0-----| 
D|-------2-----------2-----|-------2--------------|-------2-----------2-----| 
A|--3----------------------|--3---------2----1----|--0----------------------| 
E|-------------0-----------|----------------------|-------------0-----------| 

                            Dm                      G7 
e|---------------0-------|------------0----------|--3--------3-----0-------| 
B|-------2----3----------|-------6---------------|-----0-------------------| 
G|-------0----------0----|-------7-------7--7----|--------0-----------0----| 
D|-------2----------2----|-------7----------7----|--------3-----------3----| 
A|--0--------------------|--5--------------------|-------------------------| 
E|------------0----------|------------5----------|--3-----------3----------| 

    C                                               F 
e|------------------------|----------------------|---------------0-----1--| 
B|--3--------1------------|----------------------|-------1----3-----------| 
G|-----0--0---------------|----------------------|-------2----------2-----| 
D|--------2----------2----|----------------------|-------3----------3-----| 
A|--3---------------------|--3----1----0---------|------------3-----------| 
E|--------------3---------|-----------------3----|--1---------------------| 

    E7b9                      Am                       F 
e|-----0-----------0-------|--7-------5-------------|--3----1----------------| 
B|-----------4-------------|----------------5-------|----------1-----3-------| 
G|--------1-----------1----|-------5-----------5----|-------2-----------2----| 
D|--------0-----------0----|-------7-----------7----|-------3-----------3----| 
A|--------------2----------|--0---------------------|-------------3----------| 
E|--0----------------------|-------------0----------|--1---------------------| 

    C                      C9                      F 
e|--0--1--3--0----------|-----0--1--0-----------|---------------0-----1--| 
B|--1-------------------|--3-------------3------|-------1----3-----------| 
G|--0-------------------|--3--------------------|-------2----------2-----| 
D|--2-------------------|--2--------------------|-------3----------3-----| 
A|--3-------------------|--3--------------------|------------3-----------| 
E|----------------------|--3--------------------|--1---------------------| 

    E79                       Am                       A7 
e|-----0-----------0-------|--7-------5-------------|-----------------------| 
B|-----------4-------------|----------------5-------|--8-------6------------| 
G|--------1-----------1----|-------5-----------5----|-------6----------6----| 
D|--------0-----------0----|-------7-----------7----|-------7----------7----| 
A|--------------2----------|--0---------------------|--0--------------------| 
E|--0----------------------|-------------0----------|-------------0---------| 

    D9                                              G7sus4    G7 
e|--0--------------------|-------0---------------|-----------------------| 
B|----------3------------|---------------3-------|-----------------------| 
G|-------5----------5----|-------5----------5----|--5---------4--3-------| 
D|-------4----------4----|-------4----------4----|-------3----------3----| 
A|--5--------------------|--5--------------------|------------5----------| 
E|-------------5---------|------------5----------|--3--------------------| 

                           C 
e|----------------------|-------0--------------0--|----------------------| 
B|----------------------|----------1--3--1--------|----------------------| 
G|--4-------------------|-------0-----------0-----|-------0--------------| 
D|----------------------|-------2-----------2-----|-------2--------------| 
A|------------0----2----|--3----------------------|--3---------2----1----| 
E|--3----3--------------|-------------------------|----------------------| 

    A7                                               Dm 
e|-------0----------------|---------------0-------|------------0----------| 
B|----------2h-3--2-------|-------2----3----------|-------6---------------| 
G|-------0-----------0----|-------0----------0----|-------7-------7--7----| 
D|-------2-----------2----|-------2----------2----|-------7----------7----| 
A|--0---------------------|--0--------------------|--5--------------------| 
E|-------------0----------|------------0----------|------------5----------| 

    G7                        C                        A7sus4 A7 
e|--3--------3-----0-------|------------------------|--------------------| 
B|-----0-------------------|--3--------1------------|--3------2----------| 
G|--------------------0----|-----0-------------0----|--0------0----------| 
D|--------3-----------3----|--------2----------2----|--2------2----------| 
A|--------2----------------|--3---------------------|--0------0----------| 
E|--3-----------3----------|--------------3---------|--------------------| 

    Dm                      G7                      Csus2adC63    Csus2a 
e|------------0----------|--3----------5----3----|--8------5-----------| 
B|-------6---------------|-----3-------3---------|--8------5------8----| 
G|-------7-------7-------|-------------4---------|--7------5------7----| 
D|-------7----------7----|--------3----3---------|----------------7----| 
A|--5--------------------|-----------------------|---------------------| 
E|------------5----------|--3--------------------|---------------------| 

      C      Asus4      C 
e|-------------------------|------------------| 
B|----5--------------------|------------------| 
G|----5------7----------5--|------------------| 
D|----5------7----------5--|------------------| 
A|-----------7----5--6--7--|------------------| 
E|-------------------------|------------------| 



************************************ 

| h  Hammer-on 

************************************ 
  

cifra enviadasem correções
enviado porenviada por:marcnagel
top 5 | chet atkins
top country
Outras músicas do artista letras do(a) Chet Atkins
Top cifras »Top artistas »
Petaxxon Comunicação Online
Cifras.com.br - Melhor e mais completo site de cifras e tablaturas do Brasil
Mais de 1 milhão de acordes de músicas cadastradas desde 2003
As informações contidas no nosso site são colaborações de seus usuários e podem conter erros, sendo assim, não nos responsabilizamos sobre nenhuma destas.
close
menos
mais
close
Cor dos acordes:

Cor da letra:

 

save
close
close
 
redimensionar