Cifras e Tablaturas
Childish Gambino

Childish Gambino

Me And Your Mama

Cifras Cancelar Versão de Impressão
cifras

Childish Gambino - Me And Your Mama

fixar na tela  
Exibindo: vídeo-aula ver clipes redimensionar
  
Intro 

Am                                         Em 
I'm in love when we are smokin' that la-la-la-la-la x8 

Riff (Played with chords, optional) 
  e|--0--------|---------------------1-/-8-/--|-7-----------|-----\-3-\-1------| 
  B|-----------|------------------------------|-------------|------------------| 
6 G|-----------|------------------------------|-------------|------------------| x8 
4 D|-----------|------------------------------|-------------|------------------| 
  A|-----------|------------------------------|-------------|------------------| 
  E|-----------|------------------------------|-------------|------------------| 

Turn on Distortion in this middle section 

Riff 1 
  e|-----------|-----------------|-------------------|-------------------------| 
  B|-----------|-----------------|-------------------|-------------------------| 
4 G|-----------|-----------------|-------------------|-------------------------| x2 
4 D|--------3--|--7------7-6-----|-5-------3-5-3-----|-------------------------| 
  A|--5--------|-----------------|---------------5-4-|-3-----------------h-3---| 
  E|-----------|-----------------|-------------------|-------------3-h-5-------| 

Riff 2 

  e|-------------|---------------|----------------|----------------------------| 
  B|-------------|---------------|----------------|----------------------------| 
6 G|-------------|---------------|----------------|----------------------------| 
4 D|---------3---|--7------7---6-|-5------5-3-----|----------------------------| 
  A|-5-----------|---------------|------------5-4-|-3--------------------------| 
  E|-------------|---------------|----------------|----------------------------| 

Riff 1 
  e|-----------|-----------------|-------------------|-------------------------| 
  B|-----------|-----------------|-------------------|-------------------------| 
4 G|-----------|-----------------|-------------------|-------------------------| x2 
4 D|--------3--|--7------7-6-----|-5-------3-5-3-----|-------------------------| 
  A|--5--------|-----------------|---------------5-4-|-3-----------------h-3---| 
  E|-----------|-----------------|-------------------|-------------3-h-5-------| 

Riff 2 

  e|-------------|---------------|----------------|----------------------------| 
  B|-------------|---------------|----------------|----------------------------| 
6 G|-------------|---------------|----------------|----------------------------| 
4 D|---------3---|--7------7---6-|-5------5-3-----|----------------------------| 
  A|-5-----------|---------------|------------5-4-|-3--------------------------| 
  E|-------------|---------------|----------------|----------------------------| 

Riff 1 
  e|-----------|-----------------|-------------------|-------------------------| 
  B|-----------|-----------------|-------------------|-------------------------| 
4 G|-----------|-----------------|-------------------|-------------------------| x2 
4 D|--------3--|--7------7-6-----|-5-------3-5-3-----|-------------------------| 
  A|--5--------|-----------------|---------------5-4-|-3-----------------h-3---| 
  E|-----------|-----------------|-------------------|-------------3-h-5-------| 

Riff 2 

  e|-------------|---------------|----------------|----------------------------| 
  B|-------------|---------------|----------------|----------------------------| 
6 G|-------------|---------------|----------------|----------------------------| 
4 D|---------3---|--7------7---6-|-5------5-3-----|----------------------------| 
  A|-5-----------|---------------|------------5-4-|-3--------------------------| 
  E|-------------|---------------|----------------|----------------------------| 


Chorus 

  e|-----------|-----------------|-------------------|-------------------------| 
  B|-----------|-----------------|-------------------|-------------------------| 
6 G|-----------|-----------------|-------------------|-------------------------| 
4 D|--------3--|--7------7-6-----|-5-----------------|-------------------------| x3 
  A|--5--------|-----------------|-------------------|-3-----------------------| 
  E|-----------|-----------------|-------------------|-------------------------| 

Last Time 

  e|-----------|------| 
  B|-----------|------| 
6 G|-----------|------| 
4 D|--------3--|--7---|  
  A|--5--------|------| 
  E|-----------|------| 

Distortion off 

Am-Abm-Gm       C 


Outro 

Dm    F    Am     Am-Abm-Gm     C  Repeat, fade out 



************************************ 

| h   Hammer-on 
| /   Slide up 
| \   Slide down 

************************************ 
  

cifra enviadasem correções
enviado porenviada por:brunblazkowski
top 5 | childish gambino
top rap/hip hop
Outras músicas do artista letras do(a) Childish Gambino
4.
3005
Top cifras »Top artistas »
Petaxxon Comunicação Online
Cifras.com.br - Melhor e mais completo site de cifras e tablaturas do Brasil
Mais de 1 milhão de acordes de músicas cadastradas desde 2003
As informações contidas no nosso site são colaborações de seus usuários e podem conter erros, sendo assim, não nos responsabilizamos sobre nenhuma destas.
close
menos
mais
close
Cor dos acordes:

Cor da letra:

 

save
close
close
 
redimensionar