Cifras e Tablaturas
Chris Cornell

Chris Cornell

Murderer Of Blue Skies

Cifras Cancelar Versão de Impressão
cifras

Chris Cornell - Murderer Of Blue Skies

fixar na tela  
Exibindo: vídeo-aula ver clipes redimensionar

Tom:

  
Introduction  
e|---3-----3-----3-|---3-----3-----3-|---3-----3-----3-|---3-----3-----3-| 
B|-----3-----3-----|-----3-----3-----|-----3-----3-----|-----3-----3-----| 
G|-----------------|-----------------|-----------------|-----------------| 
D|-2-----2-----2---|-2-----2-----2---|-2-----2-----2---|-2-----2-----2---| 
A|-----------------|-----------------|-----------------|-----------------| 
E|-----------------|-----------------|-----------------|-----------------| 


Verse I                                                                      
e|---3-----3-----3-|---3-----3-----3-|---3-----3-----3-|---3-----3-----3-| 
B|-----3-----3-----|-----3-----3-----|-----3-----3-----|-----3-----3-----| 
G|-----------------|-----------------|-0-----0---------|-----------------|  x3 
D|-2-----2-----2---|-0-----0-----0---|-----------------|-----------------| 
A|-----------------|-----------------|-------------2---|-3-----3-----3---| 
E|-----------------|-----------------|-----------------|-----------------| 

e|---3-----3-----3-|---3-----3-----3-|---3-----3-----3-|---3-----3-----3-| 
B|-----3-----3-----|-----3-----3-----|-----5-----5-----|-----5-----5-----| 
G|-----------------|-----------------|-------2---------|-------2---------| 
D|-2-----2-----2---|-0-----0-----0---|-----------------|-----------------| 
A|-----------------|-----------------|-4-----------4---|-4-----------4---| 
E|-----------------|-----------------|-----------------|-----------------| 


Chorus I                                                                       
e|---3-----3-----3-|---3-----3-----3-|---3-----3-----3-|---3-----3-----3-| 
B|-----3-----3-----|-----3-----3-----|-----3-----3-----|-----3-----3-----| 
G|-----------------|-----------------|-0-----0-----0---|-----------------|  x2 
D|-----------------|-2-----2-----2---|-----------------|-4-----4-----4---| 
A|-3-----3-----3---|-----------------|-----------------|-----------------| 
E|-----------------|-----------------|-----------------|-----------------| 

e|---3-----3-----3-|---3-----3-----3-|---3-----3-----3-|---3-----3-----3-| 
B|-----3-----3-----|-----3-----3-----|-----3-----3-----|-----5-----5-----| 
G|-----------------|-----------------|-0-----0-----0---|-------2---------| 
D|-----------------|-2-----2-----2---|-----------------|-----------------| 
A|-3-----3-----3---|-----------------|-----------------|-4-----------4---| 
E|-----------------|-----------------|-----------------|-----------------| 

e|---3-----3-----3-|---3-----3-----3-|---3-----3-----3-| 
B|-----5-----5-----|-----3-----3-----|-----3-----3-----| 
G|-------2---------|-----------------|-----------------| 
D|-----------------|-----------------|-0-----0-----0---| 
A|-4-----------4---|-3-----3-----3---|-----------------| 
E|-----------------|-----------------|-----------------| 


Interlude                                                                    
e|---3-----3-----3-|---3-----3-----3-|---3-----3-----3-|---3-----3-----3-| 
B|-----3-----3-----|-----3-----3-----|-----3-----3-----|-----3-----3-----| 
G|-----------------|-----------------|-0-----0---------|-----------------|  x2 
D|-2-----2-----2---|-0-----0-----0---|-----------------|-----------------| 
A|-----------------|-----------------|-------------2---|-3-----3-----3---| 
E|-----------------|-----------------|-----------------|-----------------| 


Verse II                                                                     
e|---3-----3-----3-|---3-----3-----3-|---3-----3-----3-|---3-----3-----3-| 
B|-----3-----3-----|-----3-----3-----|-----3-----3-----|-----3-----3-----| 
G|-----------------|-----------------|-0-----0---------|-----------------|  x3 
D|-2-----2-----2---|-0-----0-----0---|-----------------|-----------------| 
A|-----------------|-----------------|-------------2---|-3-----3-----3---| 
E|-----------------|-----------------|-----------------|-----------------| 

e|---3-----3-----3-|---3-----3-----3-|---3-----3-----3-|---3-----3-----3-| 
B|-----3-----3-----|-----3-----3-----|-----5-----5-----|-----5-----5-----| 
G|-----------------|-----------------|-------2---------|-------2---------| 
D|-2-----2-----2---|-0-----0-----0---|-----------------|-----------------| 
A|-----------------|-----------------|-4-----------4---|-4-----------4---| 
E|-----------------|-----------------|-----------------|-----------------| 


Chorus II                                                                       
e|---3-----3-----3-|---3-----3-----3-|---3-----3-----3-|---3-----3-----3-| 
B|-----3-----3-----|-----3-----3-----|-----3-----3-----|-----3-----3-----| 
G|-----------------|-----------------|-0-----0-----0---|-----------------|  x2 
D|-----------------|-2-----2-----2---|-----------------|-4-----4-----4---| 
A|-3-----3-----3---|-----------------|-----------------|-----------------| 
E|-----------------|-----------------|-----------------|-----------------| 

e|---3-----3-----3-|---3-----3-----3-|---3-----3-----3-|---3-----3-----3-| 
B|-----3-----3-----|-----3-----3-----|-----3-----3-----|-----5-----5-----| 
G|-----------------|-----------------|-0-----0-----0---|-------2---------| 
D|-----------------|-2-----2-----2---|-----------------|-----------------| 
A|-3-----3-----3---|-----------------|-----------------|-4-----------4---| 
E|-----------------|-----------------|-----------------|-----------------| 

e|---3-----3-----3-|---3-----3-----3-|-----------------|-----------------| 
B|-----5-----5-----|-----3-----3-----|-3---------------|-----------------| 
G|-------2---------|-----------------|-2---------------|-----------------| 
D|-----------------|-----------------|-0---------------|-----------------| 
A|-4-----------4---|-3-----3-----3---|-----------------|-----------------| 
E|-----------------|-----------------|-----------------|-----------------| 


Bridge                                                                       
e|-----------------|-----------------|-----------------|-----------------| 
B|-----------------|-----------------|-----------------|-----------------| 
G|-10--------------|-9---------------|-8---------------|-7---------------|  x3 
D|-----------------|-----------------|-----------------|-----------------| 
A|-8---------------|-7---------------|-6---------------|-5---------------| 
E|-----------------|-----------------|-----------------|-----------------| 

e|-----------------|-----------------|-----------------| 
B|-----------------|-----------------|-----------------| 
G|-5---------------|-4---------------|-----------------| 
D|-5---------------|-5---------------|-----------------| 
A|-3---------------|-2---------------|-----------------| 
E|-----------------|-----------------|-----------------| 



 | 1   +   2   +   3   +   4   +   | 1   +   2   +   3   +   4   +    | 

Guitar Solo 
e|---------------------------------|----------------------------------| 
B|---------------------------------|----------------------------------| 
G|---------9-------9---12----------|-11h-12--9---12p-11--9------------| 
D|-7-/-9-------9-------------------|-------------------------12-------| 
A|---------------------------------|----------------------------------| 
E|---------------------------------|----------------------------------| 
  
e|---------------------------------|----------------------------------| 
B|---------------------------------|----------------------------------| 
G|---------9-------9---14----------|12-14-12-11-12-11-----------------| 
D|-7-/-9-------9-------------------|------------------9---------------| 
A|---------------------------------|----------------------------------| 
E|---------------------------------|----------------------------------| 
    
e|---------------------------------|----------------------------------| 
B|---------------------------------|----------------------------------| 
G|---------9-------9---12----------|-11h-12--9---12p-11--9------------| 
D|-7-/-9-------9-------------------|-------------------------12-------| 
A|---------------------------------|----------------------------------| 
E|---------------------------------|----------------------------------| 

e|---------------------------------|----------------------------------| 
B|---------------------------------|----------------------------------| 
G|---------9-------9---12----------|12-14-12-11-12-11-----------------| 
D|-7-/-9-------9-------------------|------------------9---------------| 
A|---------------------------------|----------------------------------| 
E|---------------------------------|----------------------------------| 

e|---------------------------------|----------------------------------| 
B|-----15------15------------------|----------------------------------| 
G|-16------16------16--------------|14-16-14-----12h-14p-12--11--9----| 
D|---------------------------------|----------------------------------| 
A|---------------------------------|----------------------------------| 
E|---------------------------------|----------------------------------| 

e|---------------------------------|----------------------------------| 
B|-----15------15------------------|------------------17--------------| 
G|-16------16------16--------------|14-16-14-12-14-12-----------------| 
D|---------------------------------|----------------------------------| 
A|---------------------------------|----------------------------------| 
E|---------------------------------|----------------------------------| 

e|---------------------------------|----------------------------------| 
B|-----15------15------------------|----------------------------------| 
G|-16------16------16--------------|-14--16--14--12--14--12--11--9----| 
D|---------------------------------|----------------------------------| 
A|---------------------------------|----------------------------------| 
E|---------------------------------|----------------------------------| 

e|---------------------------------|----------------------------------| 
B|-----15------15------------------|-------------15------17//20~------| 
G|-16------16------16----------14--|-16------16-----------------------| 
D|---------------------------------|----------------------------------| 
A|---------------------------------|----------------------------------| 
E|---------------------------------|----------------------------------| 


 | 1 + 2 + 3 + 4 + | 1 + 2 + 3 + 4 + | 1 + 2 + 3 + 4 + | 1 + 2 + 3 + 4 + | 

Chorus III (Sustained and strummed both work) 
e|-3-3-3-3-3-3-3-3-|-3-3-3-3-3-3-3-3-|-3-3-3-3-3-3-3-3-|-2-2-2-2-2-2-2-2-| 
B|-1-1-1-1-1-1-1-1-|-0-0-0-0-0-0-0-0-|-0-0-0-0-0-0-0-0-|-3-3-3-3-3-3-3-3-| 
G|-0-0-0-0-0-0-0-0-|-0-0-0-0-0-0-0-0-|-0-0-0-0-0-0-0-0-|-2-2-2-2-2-2-2-2-| 
D|-2-2-2-2-2-2-2-2-|-2-2-2-2-2-2-2-2-|-0-0-0-0-0-0-0-0-|-0-0-0-0-0-0-0-0-| 
A|-3-3-3-3-3-3-3-3-|-2-2-2-2-2-2-2-2-|-2-2-2-2-2-2-2-2-|-0-0-0-0-0-0-0-0-| 
E|-----------------|-----------------|-3-3-3-3-3-3-3-3-|-2-2-2-2-2-2-2-2-| 

e|-3-3-3-3-3-3-3-3-|-3-3-3-3-3-3-3-3-|-3-3-3-3-3-3-3-3-|-2-2-2-2-2-3---2-| 
B|-1-1-1-1-1-1-1-1-|-0-0-0-0-0-0-0-0-|-0-0-0-0-0-0-0-0-|-3-3-3-3-3-3-3-3-| 
G|-0-0-0-0-0-0-0-0-|-0-0-0-0-0-0-0-0-|-0-0-0-0-0-0-0-0-|-2-2-2-2-2-2-2-2-| 
D|-2-2-2-2-2-2-2-2-|-2-2-2-2-2-2-2-2-|-0-0-0-0-0-0-0-0-|-0-0-0-0-0-0-0-0-| 
A|-3-3-3-3-3-3-3-3-|-2-2-2-2-2-2-2-2-|-2-2-2-2-2-2-2-2-|-0-0-0-0-0-0-0-0-| 
E|-----------------|-----------------|-3-3-3-3-3-3-3-3-|-2-2-2-2-2-2-2-2-| 

e|-3-3-3-3-3-3-3-3-|-3-3-3-3-3-3-3-3-|-3-3-3-3-3-3-3-3-|-0-0-0-0-0-0-0-0-|-0-0-0-0-0-0-0-0-| 
B|-1-1-1-1-1-1-1-1-|-0-0-0-0-0-0-0-0-|-0-0-0-0-0-0-0-0-|-2-2-2-2-2-2-2-2-|-2-2-2-2-2-2-2-2-| 
G|-0-0-0-0-0-0-0-0-|-0-0-0-0-0-0-0-0-|-0-0-0-0-0-0-0-0-|-0-0-0-0-0-0-0-0-|-0-0-0-0-0-0-0-0-| 
D|-2-2-2-2-2-2-2-2-|-2-2-2-2-2-2-2-2-|-0-0-0-0-0-0-0-0-|-2-2-2-2-2-2-2-2-|-2-2-2-2-2-2-2-2-| 
A|-3-3-3-3-3-3-3-3-|-2-2-2-2-2-2-2-2-|-2-2-2-2-2-2-2-2-|-4-4-4-4-4-4-4-4-|-4-4-4-4-4-4-4-4-| 
E|-----------------|-----------------|-3-3-3-3-3-3-3-3-|-----------------|-----------------| 

e|-3-3-3-3-3-3-3-3-|-3-3-3-3-3-3-3-3-|-3-3-3-3-3-3-3-3-|-2-2-2-2-2-2-2-2-| 
B|-1-1-1-1-1-1-1-1-|-0-0-0-0-0-0-0-0-|-0-0-0-0-0-0-0-0-|-3-3-3-3-3-3-3-3-| 
G|-0-0-0-0-0-0-0-0-|-0-0-0-0-0-0-0-0-|-0-0-0-0-0-0-0-0-|-2-2-2-2-2-2-2-2-| 
D|-2-2-2-2-2-2-2-2-|-2-2-2-2-2-2-2-2-|-0-0-0-0-0-0-0-0-|-0-0-0-0-0-0-0-0-| 
A|-3-3-3-3-3-3-3-3-|-2-2-2-2-2-2-2-2-|-2-2-2-2-2-2-2-2-|-0-0-0-0-0-0-0-0-| 
E|-----------------|-----------------|-3-3-3-3-3-3-3-3-|-2-2-2-2-2-2-2-2-| 

e|-3-3-3-3-3-3-3-3-|-3-3-3-3-3-3-3-3-|-3-3-3-3-3-3-3-3-|-2-2-2-2-2-3---2-| 
B|-1-1-1-1-1-1-1-1-|-0-0-0-0-0-0-0-0-|-0-0-0-0-0-0-0-0-|-3-3-3-3-3-3-3-3-| 
G|-0-0-0-0-0-0-0-0-|-0-0-0-0-0-0-0-0-|-0-0-0-0-0-0-0-0-|-2-2-2-2-2-2-2-2-| 
D|-2-2-2-2-2-2-2-2-|-2-2-2-2-2-2-2-2-|-0-0-0-0-0-0-0-0-|-0-0-0-0-0-0-0-0-| 
A|-3-3-3-3-3-3-3-3-|-2-2-2-2-2-2-2-2-|-2-2-2-2-2-2-2-2-|-0-0-0-0-0-0-0-0-| 
E|-----------------|-----------------|-3-3-3-3-3-3-3-3-|-2-2-2-2-2-2-2-2-| 

e|-3-3-3-3-3-3-3-3-|-3-3-3-3-3-3-3-3-|-3-3-3-3-3-3-3-3-|-----------------|-----------------| 
B|-1-1-1-1-1-1-1-1-|-0-0-0-0-0-0-0-0-|-0-0-0-0-0-0-0-0-|-2-2-2-2-2-2-2-2-|-3-3-3-3-3-3-2-2-| 
G|-0-0-0-0-0-0-0-0-|-0-0-0-0-0-0-0-0-|-0-0-0-0-0-0-0-0-|-0-0-0-0-0-0-0-0-|-0-0-0-0-0-0-0-0-| 
D|-2-2-2-2-2-2-2-2-|-2-2-2-2-2-2-2-2-|-0-0-0-0-0-0-0-0-|-2-2-2-2-2-2-2-2-|-2-2-2-2-2-2-2-2-| 
A|-3-3-3-3-3-3-3-3-|-2-2-2-2-2-2-2-2-|-2-2-2-2-2-2-2-2-|-0-0-0-0-0-0-0-0-|-0-0-0-0-0-0-0-0-| 
E|-----------------|-----------------|-3-3-3-3-3-3-3-3-|-----------------|-----------------| 

e|-3-3-3-3-3-3-3-3-|-2-2-2-0---------|-0-0-0-0-0-0-0-0-|-2-2-2-0---------|-0-0-0-0-0-0-0-0-|-2-2-2-0---2-----| 
B|-3-3-3-3-3-3-3-3-|-3-3-3-3---3-----|-5-5-5-5-5-5-5-5-|-3-3-3-3---3-----|-5-5-5-5-5-5-5-5-|-3-3-3-3---3-----| 
G|-0-0-0-0-0-0-0-0-|-2-2-2-2---2-----|-4-4-4-4-4-4-4-4-|-2-2-2-2---2-----|-4-4-4-4-4-4-4-4-|-2-2-2-2---2-----| 
D|-2-2-2-2-2-2-2-2-|-0-0-0-0---0-----|-2-2-2-2-2-2-2-2-|-0-0-0-0---0-----|-2-2-2-2-2-2-2-2-|-0-0-0-0---0-----| 
A|-3-3-3-3-3-3-3-3-|-----------------|-----------------|-----------------|-----------------|-----------------| 
E|-----------------|-----------------|-----------------|-----------------|-----------------|-----------------| 


Outro                                              
e|-----------------|-----------------|-----------------|-----------------| 
B|-----------------|-----------------|-----------------|-----------------| 
G|-10--------------|-9---------------|-8--------------\|\7---------------| 
D|-----------------|-----------------|-----------------|-----------------| 
A|-8---------------|-7---------------|-6--------------\|\5---------------| 
E|-----------------|-----------------|-----------------|-----------------| 


************************************ 

| /   slide up 
| \   slide down 
| h   hammer-on 
| p   pull-off 
| ~   vibrato 
| +   harmonic 
| x   Mute note 
| b   Bend 
| pb  Pre-bend 
| br  Bend release 
| pbr Pre-bend release 
| brb Bend release bend 

************************************ 
  

top 5 | chris cornell
top
Outras músicas do artista letras do(a) Chris Cornell
Top cifras »Top artistas »
Petaxxon Comunicação Online
Cifras.com.br - Melhor e mais completo site de cifras e tablaturas do Brasil
Mais de 1 milhão de acordes de músicas cadastradas desde 2003
As informações contidas no nosso site são colaborações de seus usuários e podem conter erros, sendo assim, não nos responsabilizamos sobre nenhuma destas.
close
menos
mais
close
Cor dos acordes:

Cor da letra:

 

save
close
close
 
redimensionar