Cifras e Tablaturas
Chris Daughtry

Chris Daughtry

Tired Eyes

Cifras Cancelar Versão de Impressão
cifras

Chris Daughtry - Tired Eyes

fixar na tela  
Exibindo: vídeo-aula ver clipes redimensionar

Tom:

  
Intro 
  
Guitar 1 


e|-1---1------1----1----1-| 
B|-3---3------3---3-3---3-| 
G|-2---2------2--2---2--2-| 
D|-0---0--0---0-0-------0-| 
A|-0---0------0---------0-| 
E|-0---0------0---------0-| 

      Guitar 2 

e|----------------------------| 
B|----------------------------| 
G|---7--5------------7--------| 
D|0-7--7--3-0--5-7--7-3h5p3p0-| 
E|----------------------------| 

e|------------------------------------------------------------------------| 
B|------------------------------------------------------------------------| 
G|------------------------------------------------------------------------| 
D|----------------5-7--5----------------------5-7-------------------------| 
A|-0-5-3-0-x-3--0-3-5--3--5-3-0-5-3-0-5-3-5-0-3-5-5-3-0-------------------| 
E|-0-5-3-0-x-3--0---------5-3-0-5-3-0-5-3-5-0-----5-3-0-------------------| 



Verse 

e|---------------------------------------------------------------------------| 
B|---------------------------------------------------------------------------| 
G|---------------------------------------------------------------------------| 
D|--0------5-7--5------------------------------------------------------------|   Repeat 
A|--0---0--3-5--3--5-3-0-----------------------------------------------------| 
E|--0---0----------5-3-0-----------------------------------------------------| 

Chorus 

e|---------------------------------------------------------------------------| 
B|---------------------------------------------------------------------------| 
G|---------------------------------------------------------------------------| 
D|---------------------------------------------------------------------------|  
A|--7-6--5--3--0-x-x-0-x-x-0-------------------------------------------------| 
E|--7-6--5--3--0-x-x-0-x-x-0-------------------------------------------------| 

e|---------------------------------------------------------------------------| 
B|---------------------------------------------------------------------------| 
G|---------------------------------------------------------------------------| 
D|--------------------------------12--10-------------------------------------| 
A|--7--6--5--3--0-xx-0-xx-0--7-6--10--8--------------------------------------| 
E|--7--6--5--3--0-xx-0-xx-0--7-6---------------------------------------------| 


Outro 

e|---------------------------------------------------------------------------| 
B|---------------------------------------------------------------------------| 
G|---------------------------------------------------------------------------| 
D|---------------------------------------------------------------------------|   Repeat 
A|--0--3--5/--7-5-3-0--------------------------------------------------------| 
E|--0--3--5/--7-5-3-0--------------------------------------------------------| 

e|---------------------------------------------------------------------------| 
B|---------------------------------------------------------------------------| 
G|---------------------------------------------------------------------------| 
D|-----------------------------------8---------------------------------------| 
A|--0--3--5-/7-5-3--0---repeat-------8---------------------------------------|    
E|--0--3--5-/7-5-3--0----------------8---------------------------------------|  
  

top 5 | chris daughtry
top rock'n roll
Outras músicas do artista letras do(a) Chris Daughtry
1.
4am
5.
Gone
Top cifras »Top artistas »
Petaxxon Comunicação Online
Cifras.com.br - Melhor e mais completo site de cifras e tablaturas do Brasil
Mais de 1 milhão de acordes de músicas cadastradas desde 2003
As informações contidas no nosso site são colaborações de seus usuários e podem conter erros, sendo assim, não nos responsabilizamos sobre nenhuma destas.
close
menos
mais
close
Cor dos acordes:

Cor da letra:

 

save
close
close
 
redimensionar