Cifras e Tablaturas
Circa Survive

Circa Survive

1000 Witnesses

Cifras Cancelar Versão de Impressão
cifras

Circa Survive - 1000 Witnesses

fixar na tela  
Exibindo: vídeo-aula ver clipes redimensionar
  

Tuning: Half Step Drop D 

D#|----------------------| 
A#|---6---3----6---5-----| 
F#|---5---2----5---4-----|        x8       
C#|---3---0----3---2-----| 
G#|---3---0----3---2-----| 
C#|---3---0----3---2-----| 

D#|------------------------|                       
A#|------------------------|                       
F#|---6-\-7-/-6-\-7-/-6----|               
C#|---6-\-7-/-6-\-7-/-6----| 
G#|---4-\-5-/-4-\-5-/-4----| 
C#|------------------------|       

D#|----------------------| 
A#|---6---3----6---5-----| 
F#|---5---2----5---4-----|        x4       
C#|---3---0----3---2-----| 
G#|---3---0----3---2-----| 
C#|---3---0----3---2-----| 

D#|------------------------|    
A#|------------------------|               
F#|---6-\-7-/-6-\-7-/-6----|       
C#|---6-\-7-/-6-\-7-/-6----| 
G#|---4-\-5-/-4-\-5-/-4----| 
C#|------------------------|       

D#|----------------|  
A#|----------------|  
F#|----------------|               
C#|---3---0--------| 
G#|---3---0--------| 
C#|---3---0--------| 

P.M--------|                    P.M--------| 
D#|-------------------------------------------------------------------------------| 
A#|-------------------------------------------------------------------------------| 
F#|-------------------------------------------------------------------------------|      x2 
C#|---5-/-4--------------------------5-/-4----------------------------------------| 
G#|---5-/-4-------------5------5-----5-/-4-----------------5------3---------------| 
C#|---5-/-4----5-3-0-3h5--5-3h5------5-/-4--------5-3-0-3h5--5-3h5--0-5-3-0-------| 

D#|---------------------------------------------------------------------------------| 
A#|---6----10---3----11----3---11----3----11-----6-----10----11----10----3----------| 
F#|---5----9----2----10----2---10----2----10-----5-----9-----10----9-----2----------|      
C#|---3----7----0----8-----0---8-----0----8------3-----7-----8-----7-----0----------| 
G#|---3----7----0----8-----0---8-----0----8------3-----7-----8-----7-----0----------| 
C#|---3----7----0----8-----0---8-----0----8------3-----7-----8-----7-----0----------| 

                        P.M--------| 
D#|-----------------------------------------------------------------------------| 
A#|-----------------------------------------------------------------------------| 
F#|-----------------------------------------------------------------------------|          
C#|-------------------------5-\-4-----------------------------------------------| 
G#|------------5------5-----5-\-4-----------------5------5----------------------| 
C#|---5-3-0-3h5--5-3h5------5-\-4--------5-3-0-3h5--5-3h5-----------------------| 

D#|----------------------------------------|                       
A#|----------------------------------------|               
F#|---6-\-7-/-6-\-7-/-6-\-9----9---10------|       
C#|---6-\-7-/-6-\-7-/-6-\-7----7---8-------| 
G#|---4-\-5-/-4-\-5-/-4-\-7----7---8-------| 
C#|----------------------------------------| 

D#|------------------------------------------------------------------------------| 
A#|------3----11----3---11----3----11-----6-----10----11----10----3--------------| 
F#|------2----10----2---10----2----10-----5-----9-----10----9-----2--------------|        
C#|------0----8-----0---8-----0----8------3-----7-----8-----7-----0--------------| 
G#|------0----8-----0---8-----0----8------3-----7-----8-----7-----0--------------| 
C#|------0----8-----0---8-----0----8------3-----7-----8-----7-----0--------------| 


 
  

top 5 | circa survive
top rock alternativo
Outras músicas do artista letras do(a) Circa Survive
Top cifras »Top artistas »
Petaxxon Comunicação Online
Cifras.com.br - Melhor e mais completo site de cifras e tablaturas do Brasil
Mais de 1 milhão de acordes de músicas cadastradas desde 2003
As informações contidas no nosso site são colaborações de seus usuários e podem conter erros, sendo assim, não nos responsabilizamos sobre nenhuma destas.
close
menos
mais
close
Cor dos acordes:

Cor da letra:

 

save
close
close
 
redimensionar