Cifras e Tablaturas
Clem Leek

Clem Leek

You're So Very Far Away

Cifras Cancelar Versão de Impressão
cifras

Clem Leek - You're So Very Far Away

fixar na tela  
Exibindo: vídeo-aula ver clipes redimensionar

Tom:

  
e|----------------------------------------------------------------------------------| 
B|-9--/14--\9-----------------------9--/14--\9--------9--/14--\9--------------------| 
G|----------------11----9\8---8--------------------------------------11----9\8---8--| 
D|----------------------------------------------------------------------------------| 
A|----------------------------------------------------------------------------------| 
E|----------------------------------------------------------------------------------| 

e|--9--/14--16--17--17--\16--16--16--14--14--\12--12-------------------------| 
B|---------------------------------------------------------------------------| 
G|---------------------------------------------------------------------------| 
D|---------------------------------------------------------------------------| 
A|---------------------------------------------------------------------------| 
E|---------------------------------------------------------------------------| 

e|-----------------------------------------------------------------------| 
B|----9------9------9------9------9-------14--------14-------9------9----| 
G|------9------9------9------9------9--------14--------14------9------9--| 
D|-----------------------------------------------------------------------| 
A|--7------7------7------7------7------12--------12--------7------7------| 
E|-----------------------------------------------------------------------| 

e|--------------------------------------------------------------------------------------| 
B|----7------7------7------7------7--------5------5------5------5------5------5------5--| 
G|------7------7------7------7------7----6------6------6------6------6------6------6----| 
D|--------------------------------------------------------------------------------------| 
A|--5------5------5------5------5------4------4------2------2------2------2------2------| 
E|--------------------------------------------------------------------------------------| 

e|---------------------------------------------------------------------------| 
B|----9------9-------14--------14-------9------9------9------9------9--------| 
G|------9------9--------14--------14------9------9------9------9------9------| 
D|---------------------------------------------------------------------------| 
A|--7------7------12--------12--------7------7------7------7------7----------| 
E|---------------------------------------------------------------------------| 

e|-----------------------------------------------------------------------| 
B|----9------9------9------9------9-------14--------14-------9------9----| 
G|------9------9------9------9------9--------14--------14------9------9--| 
D|-----------------------------------------------------------------------| 
A|--7------7------7------7------7------12--------12--------7------7------| 
E|-----------------------------------------------------------------------| 

e|--------------------------------------------------------------------------------------| 
B|----7------7------7------7------7--------5------5------5------5------5------5------5--| 
G|------7------7------7------7------7----6------6------6------6------6------6------6----| 
D|--------------------------------------------------------------------------------------| 
A|--5------5------5------5------5------4------4------2------2------2------2------2------| 
E|--------------------------------------------------------------------------------------| 

e|--------------------------------------------------------| 
B|----9------9-------14--------14--------14--------14-----| 
G|------9------9--------14--------14--------14--------14--| 
D|--------------------------------------------------------| 
A|--7------7------12--------12--------12--------12--------| 
E|--------------------------------------------------------| 

e|--14--/16--17--17--\16--16--16--\14--14--| 
B|-----------------------------------------| 
G|-----------------------------------------|x3 
D|-----------------------------------------| 
A|-----------------------------------------| 
E|-----------------------------------------| 

e|--14--12--12--/14--14-/16--17--17--\16--16--| 
B|--------------------------------------------| 
G|--------------------------------------------| 
D|--------------------------------------------| 
A|--------------------------------------------| 
E|--------------------------------------------| 

e|-----------------------------------------------------------------------| 
B|----9------9------9------9------9-------14--------14-------9------9----| 
G|------9------9------9------9------9--------14--------14------9------9--| 
D|-----------------------------------------------------------------------| 
A|--7------7------7------7------7------12--------12--------7------7------| 
E|-----------------------------------------------------------------------| 

e|--------------------------------------------------------------------------------------| 
B|----7------7------7------7------7--------5------5------5------5------5------5------5--| 
G|------7------7------7------7------7----6------6------6------6------6------6------6----| 
D|--------------------------------------------------------------------------------------| 
A|--5------5------5------5------5------4------4------2------2------2------2------2------| 
E|--------------------------------------------------------------------------------------| 

e|------------------------------------------------------------------| 
B|----9------9-------14--------14--------14--------14--------14-----| 
G|------9------9--------14--------14--------14--------14--------14--|x2 
D|------------------------------------------------------------------| 
A|--7------7------12--------12--------12--------12--------12--------| 
E|------------------------------------------------------------------| 

e|----------------------------------------------------------------------------------------| 
B|----9------9------10------10------10------10-------14--------14--------14--------14-----| 
G|------9------9-------9-------9-------9-------9--------14--------14--------14--------14--| 
D|----------------------------------------------------------------------------------------| 
A|--7------7------9-------9-------9-------9-------12--------12--------12--------12--------| 
E|----------------------------------------------------------------------------------------| 

e|--14--/16--17--17--\16--16--16--\14--14--14--\16--17--17--17--\16--16--\14--14--| 
B|--------------------------------------------------------------------------------| 
G|--------------------------------------------------------------------------------| 
D|--------------------------------------------------------------------------------| 
A|--------------------------------------------------------------------------------| 
E|--------------------------------------------------------------------------------| 

************************************ 

| /   Slide up 
| \   Slide down 

************************************ 
  

top 5 | clem leek
top rock'n roll
Outras músicas do artista letras do(a) Clem Leek
Top cifras »Top artistas »
Petaxxon Comunicação Online
Cifras.com.br - Melhor e mais completo site de cifras e tablaturas do Brasil
Mais de 1 milhão de acordes de músicas cadastradas desde 2003
As informações contidas no nosso site são colaborações de seus usuários e podem conter erros, sendo assim, não nos responsabilizamos sobre nenhuma destas.
close
menos
mais
close
Cor dos acordes:

Cor da letra:

 

save
close
close
 
redimensionar