Cifras e Tablaturas
Clifford Brown

Clifford Brown

Parisian Thoroughfare

Cifras Cancelar Versão de Impressão
cifras

Clifford Brown - Parisian Thoroughfare

fixar na tela  
Exibindo: vídeo-aula ver clipes redimensionar
  A 

 |----1st time only-------| 
 |                        |Fmaj7             Gm7                C7           Am7         D7 
e|------------------------|------------------------|------------------------|------------------------| 
B|----------------------5-|6-5---------------------|------------------------|------------------------| 
G|------------------5-7---|----7-5-----------7-----|------5--7--5-----------|------------------------| 
D|------------------------|--------8-7-5-----------|--------------8-7-5-----|------------------------| 
A|------------------------|------------------------|--------------------8-7-|5-----------------------| 
E|------------------------|------------------------|------------------------|------------------------| 
  1 e a 2 e a 3 e a 4 e a  1 e a 2 e a 3 e a 4 e a  1 e a 2  +  3 e a 4 e a  1 e a 2 e a 3 e a 4 e a   


  Gm7         C7           Fmaj7             Gm7                C7           Fmaj7 
e|------------------------|------------------------|------------------------|------------------------| 
B|----------------------5-|6-5---------------------|------------------------|------------------------| 
G|------------------5-7---|----7-5-----------7-----|------5--7--5-----------|------------------------| 
D|------------5-7-8-------|--------8-7-5-----------|--------------8-7-5-----|------------------------| 
A|------5-7-8-------------|------------------------|--------------------8-7-|8-----------------------| 
E|---8--------------------|------------------------|------------------------|------------------------| 
  1  +  2 e a 3 e a 4 e a  1 e a 2 e a 3 e a 4 e a  1 e a 2  +  3 e a 4 e a  1 e a 2 e a 3 e a 4 e a 


 |-----1st Ending---------||------2nd Ending--------|| 
 |Gm7         C7          ||Bm7         E7          || 
e|------------------------||------------------------|| 
B|----------------------5-||------------------------|| 
G|------------------5-7---||------------------------|| 
D|------------------------||------------------------|| 
A|------------------------||------------------------|| 
E|------------------------||------------------------|| 
  1 e a 2 e a 3 e a 4 e a   1 e a 2 e a 3 e a 4 e a 


B 

  Amaj7                    Bm7         E7           Amaj7                    Am7         D7  
e|------------------------|------------------------|------------------------|------------------------| 
B|------------------------|---------5--------------|------------------------|------------------------| 
G|------------------4--6--|7--5--6-----------7-6-4-|6-----4-----4-----------|------------------------| 
D|---------4--6--7--------|------------------------|--------7-6----7--------|5-----5-----------------| 
A|------7-----------------|------------------------|------------------7--5--|---7-----7--------------| 
E|------------------------|------------------------|------------------------|------------------------| 
  1  +  2  +  3  +  4  +   1  +  2  +  3  +  4 e a  1  +  2 e a 3  +  4  +   1  +  2  +  3  +  4  + 


  Gmaj7                    Dm7         G7           Gm7                      C7(b5) 
e|------------------------|---------3--------------|------------------------|------------------------| 
B|---------------------5--|6--4--5-----------6-5---|5-----------------------|----------------------5-| 
G|------------4--5--7-----|----------------------7-|--------------5---------|5-----------------5-7---| 
D|------5--7--------------|------------------------|---5--7--8------8-7--5--|---4--------------------| 
A|------------------------|------------------------|------------------------|------------------------| 
E|------------------------|------------------------|------------------------|------------------------| 
  1  +  2  +  3  +  4  +   1  +  2  +  3  +  4 e a  1  +  2  +  3 e a 4  +   1  +  2  +  3  +  4 e a   
 
  

cifra enviadasem correções
enviado porenviada por:hugo_rodrigues
top 5 | clifford brown
top rock'n roll
Outras músicas do artista letras do(a) Clifford Brown
Top cifras »Top artistas »
Petaxxon Comunicação Online
Cifras.com.br - Melhor e mais completo site de cifras e tablaturas do Brasil
Mais de 1 milhão de acordes de músicas cadastradas desde 2003
As informações contidas no nosso site são colaborações de seus usuários e podem conter erros, sendo assim, não nos responsabilizamos sobre nenhuma destas.
close
menos
mais
close
Cor dos acordes:

Cor da letra:

 

save
close
close
 
redimensionar