Cifras e Tablaturas
Clutch

Clutch

Sucker For The Witch

Cifras Cancelar Versão de Impressão
cifras

Clutch - Sucker For The Witch

fixar na tela  
Exibindo: vídeo-aula ver clipes redimensionar
  
Intro (play a F#5 chord 3 times, let the notes ring on the last time) 
e|--------------------| 
B|--------------------| 
G|--------------------| 
D|--4-----4-----4-----| 
A|--4-----4-----4-----| 
E|--2-----2-----2-----| 

Verse: 
e|-----------------------------------------------------------| 
B|-----------------------------------------------------------| 
G|-----------------------------------------------------------| 
D|-----------------------------------------------------------| 
A|------0---0-2-3-------------------0-2-3-2-0----------------| 
E|--0-2---2-------2-2-2-2-2-----0-2-----------2-2-2-2-2------| 

Big fat chords at arounds 0:32 

e|-------------------------------| 
B|-------------------------------| 
G|-4-------5-------7-------9-----| 
D|-4-------5-------7-------9-----| 
A|-2-------3-------5-------7-----| 
E|-------------------------------| 

Back to the main riff one octave higher: 
e|--------------------------------------------------------| 
B|--------------------------------------------------------| 
G|--------------------------------------------------------| 
D|-----7---7-9-10-----------------7-9-10-9-7--------------| 
A|-7-9---9--------9-9-9-9-9---7-9------------9-9-9-9-9----| 
E|--------------------------------------------------------| 

 

Play this part three times 
e|------------------------------------------| 
B|------------------------------------------| 
G|----------------4--4--4--4-2-----9---11---| 
D|-4--4--4--4-4---4--4--4--4-2-----9---11---| 
A|-4--4--4--4-4---2--2--2--2-0-----7---9----| 
E|-2--2--2--2-2----------------2-0----------| 

The final bit goes like this: 
e|---------------------------------------------------------------| 
B|---------------------------------------------------------------| 
G|----------------4--4--4--4-2-----------------------------------| 
D|-4--4--4--4-4---4--4--4--4-2------4-2---2----------------------| 
A|-4--4--4--4-4---2--2--2--2-0----------4---4-3-2-4-2------------| 
E|-2--2--2--2-2----------------2-0--------------------5-2-0-2----| 

Back to the verse, a B chord is played 
e|------------------| 
B|--12--12-----12---| 
G|--11--11-----11---| 
D|--9---9------9----| 
A|------------------| 
E|------------------| 

Use again the parts already shown: verse, Chorus and so on. 

End the song with 
e|---------------| 
B|---------------| 
G|---------------| 
D|--4--4--2--2---| 
A|--4--4--2--2---| 
E|--2--2--0--0---|  
  

cifra enviadasem correções
enviado porenviada por:tercmoraes
top 5 | clutch
top rock'n roll
Outras músicas do artista letras do(a) Clutch
Top cifras »Top artistas »
Petaxxon Comunicação Online
Cifras.com.br - Melhor e mais completo site de cifras e tablaturas do Brasil
Mais de 1 milhão de acordes de músicas cadastradas desde 2003
As informações contidas no nosso site são colaborações de seus usuários e podem conter erros, sendo assim, não nos responsabilizamos sobre nenhuma destas.
close
menos
mais
close
Cor dos acordes:

Cor da letra:

 

save
close
close
 
redimensionar