Cifras e Tablaturas
Cocteau Twins

Cocteau Twins

Quisquose

Cifras Cancelar Versão de Impressão
cifras

Cocteau Twins - Quisquose

fixar na tela  
Exibindo: vídeo-aula ver clipes redimensionar

Tom:

  
The intro is played on a piano, but here it is anyway... 

e|----3----------------8------------| 
B|----1-(let ring)-----8-(let ring)-| 
G|----------------------------------| 
D|-0----------------7---------------| x2 
A|----------------------------------| 
E|----------------------------------| 

Verse 

e|----------------------------| 
B|--------3--3----------------| 
G|---0------------2------5--5-| 
D|-2---2--------3---5-0-------| 
A|----------------------------| 
E|----------------------------| 

Pretty sure there are no guitars in the Chorus-y bit and if there are they're hidden behind lots of effects. 

Bridge 

e|----------------------------------| 
B|-7-----7-----7-----7-----7--------| 
G|---7-----7-----7-----7-----7---7--| 
D|-----9-----9-----9-----9-----9----| 
A|----------------------------------| 
E|----------------------------------| 

e|-----------------------------------| 
B|-7-----7-----7---8------8------8---| 
G|---7-----7-----7---7------7------7-| 
D|-----9-----9-----------------------| 
A|---------------------10-----10-----| 
E|-----------------------------------| 
  

top 5 | cocteau twins
top pop music
Outras músicas do artista letras do(a) Cocteau Twins
Top cifras »Top artistas »
Petaxxon Comunicação Online
Cifras.com.br - Melhor e mais completo site de cifras e tablaturas do Brasil
Mais de 1 milhão de acordes de músicas cadastradas desde 2003
As informações contidas no nosso site são colaborações de seus usuários e podem conter erros, sendo assim, não nos responsabilizamos sobre nenhuma destas.
close
menos
mais
close
Cor dos acordes:

Cor da letra:

 

save
close
close
 
redimensionar