Cifras e Tablaturas
Colin Hay

Colin Hay

Good Night Romeo

Cifras Cancelar Versão de Impressão

Colin Hay - Good Night Romeo

Tom: F#

  			
Intro 
d |------0-2--2h4-----4p2p0h2-------|--0--2--4--4h5--4--2h4p2p0------------|----------------------------| 
A |----0----------------------------|--0--0--0--0---------------h4--0h4/5--|----5--4--2h4p2p0-----------| 
F#|---------------------------------|--------------------------------------|----------------------------| 
D |---------------------------------|--------------------------------------|----------------------------| 
A |---------------------------------|--------------------------------------|----------------------------| 
D |--0------------------------------|--0----------------------------0------|--0-------------------------| 

d |-------------------------0---|------------<7>-------0---------------| 
A |---------------0-------------|---------<7>-------0------------------| 
F#|---------5--------/7---------|------<7>-----------------------------| 
D |------------0---------0------|-------------------------0------------| 
A |-----------------------------|----------------------------0---------| 
D |-----0---5--------/7---------|---0---------------------------0------| 

d |--0h2---2h4----4p2p0h2---4p2p0h2-|--0--2--4--4h5--4--2h4p2p0----0-------|----------------------------| 
A |--0-----0------------------------|--0--0--0--0---------------h4---0h4/5-|----5--4--2h4p2p0-----------| 
F#|---------------------------------|--------------------------------------|----------------------------| 
D |---------------------------------|--------------------------------------|----------------------------| 
A |---------------------------------|--------------------------------------|----------------------------| 
D |--------0------------------------|--0-----------------------------0-----|--0-------------------------| 

d |----------------------0---|--------<7>----0----------|-------------------0--|---------0---0---------| 
A |------------0-------------|------<7>----0------------|---------0------------|-----------0-----------| 
F#|------5--------/7---------|----<7>-------------------|---5--------/7--------|-----------------------| 
D |---------0---------0------|------------------0-------|------0---------0-----|------0----------------| 
A |--------------------------|--------------------0-----|----------------------|-----------------------| 
D |--0---5--------/7---------|--0-------------------0---|---5--------/7--------|--0--------------------| 

d |---------------------------------|------------------------------------------|------------------------| 
A |---------------------------------|------------------------------------------|------------------------| 
F#|---------------------------------|------------------------------------------|------------------------| 
D |----0--2--2h4~----4p2p0h2--------|----0--2--4--4/5--4--2h4p2p0---0-------0--|------------------------| 
A |---0-----------------------------|---0-------------------------4---0h2h4----|-----5--4--2h4p2p0------| 
D |--0------------------------------|--0---------------------------------------|--0---------------------| 

d |-------------------------0---|------------<7>-------0---------------| 
A |---------------0-------------|---------<7>-------0------------------| 
F#|---------5--------/7---------|------<7>-----------------------------| 
D |------------0---------0------|-------------------------0------------| 
A |-----------------------------|----------------------------0---------| 
D |-----0---5--------/7---------|---0---------------------------0------| 

d |-----------------------------------|------------------------------------------|------------------------| 
A |-----------------------------------|------------------------------------------|------------------------| 
F#|-----------------------------------|------------------------------------------|------------------------| 
D |----0--2--2h4~--4p2p0h2---4p2p0h2--|----0--2--4--4/5--4--2h4p2p0---0-------0--|------------------------| 
A |---0-------------------------------|---0-------------------------4---0h2h4----|-----5--4--2h4p2p0------| 
D |--0--------------------------------|--0---------------------------------------|--0---------------------| 

d |----------------------0---|--------<7>----0----------|-------------------0--|---------0---0---------| 
A |------------0-------------|------<7>----0------------|---------0------------|-----------0-----------| 
F#|------5--------/7---------|----<7>-------------------|---5--------/7--------|-----------------------| 
D |---------0---------0------|------------------0-------|------0---------0-----|------0----------------| 
A |--------------------------|--------------------0-----|----------------------|-----------------------| 
D |--0---5--------/7---------|--0-------------------0---|---5--------/7--------|--0--------------------| 

d |-----------0--------------------------|------------0-------------------------| 
A |--------0--0--0----------0------------|---------0--0--0----------0-----------| 
F#|------1-1-----1--1--------------------|-------1-1-----1--1-------------------| 
D |----4-4----------4-----2-----2/4\2p0--|-----4-4----------4-----2-----2/4-----| 
A |----2----------------0----------------|-----2----------------0---------------| 
D |--2--------------------------0--------|---2--------------------------0-------| 

d |-----------0--------------------------|------------0---------------------0-0-------------| 
A |--------0--0--0----------0------------|---------0--0--0----------0-----------0-0---------| 
F#|------1-1-----1--1--------------------|-------1-1-----1--1-----------------------1-0-----| 
D |----4-4----------4-----2-----2/4\2p0--|-----4-4----------4-----2-----2/4-----------------| 
A |----2----------------0----------------|-----2----------------0-----------------------0---| 
D |--2--------------------------0--------|---2--------------------------0-----------------0-| 

d |--0h2--2h4---2--h4p2p0h2--h4p2p0h2-|--0--2--4--4h5--4--2h4p2p0----0-------|--------------------| 
A |--0----0-----0---------------------|--0--0--0--0---------------h4---0h4/5-|----5--4--2h4p2p0---| 
F#|-----------------------------------|--------------------------------------|--------------------| 
D |-----------------------------------|--------------------------------------|--------------------| 
A |-----------------------------------|--------------------------------------|--------------------| 
D |-------0---------------------------|--0-----------------------------0-----|--0-----------------| 

d |----------------------0---|--------<7>----0----------|-------------------0-|--------0---0---0-------| 
A |------------0-------------|------<7>----0------------|---------0-----------|----------0---0---0-----| 
F#|------5--------/7---------|----<7>-------------------|---5--------/7-------|------------------------| 
D |---------0---------0------|------------------0-------|------0---------0----|-----0------------------| 
A |--------------------------|--------------------0-----|---------------------|--------------------0---| 
D |--0---5--------/7---------|--0-------------------0---|---5--------/7-------|-0--------------------0-| 

d |-------------------0---|--------0---0---0--------|-------------------0--|------<7>------------------| 
A |---------0-------------|----------0---0---0------|---------0------------|----<7>--------0-----------| 
F#|---5--------/7---------|-------------------------|---5--------/7--------|--<7>--------8-------/12~--| 
D |------0---------0------|-----0-------------------|------0---------0-----|------------0--------------| 
A |-----------------------|--------------------0----|----------------------|------------------0--------| 
D |---5--------/7---------|--0-------------------0--|---5--------/7--------|-0------------------0------| 

 
    	
fixar
fixar inscrever-se

enviado porenviado por: ang-letra
cifra enviadaCorrigida por: sem correções
logo top cifrasComente
ico música do artistaMúsicas deste artista
ico curtiuCurtiu?
ico destaqueDestaque
Petaxxon Comunicação Online

Cifras.com.br - Melhor e mais completo site de cifras e tablaturas do Brasil Mais de 1 milhão de acordes de músicas cadastradas desde 2003
As informações contidas no nosso site são colaborações de seus usuários e podem conter erros, sendo assim, não nos responsabilizamos sobre nenhuma destas.

close
menos
mais
close
Cor dos acordes:

Cor da letra:

close
Alinhar acordes a direita Alinhar acordes a esquerda Alinhar acordes em baixo Alinhar acordes no topo
close
  Mostrar todos os acordes Esconder acordes muito fáceis Esconder acordes fáceis Esconder acordes intermediários
redimensionar
glossário