Cifras e Tablaturas
Conjeart

Conjeart

Positividade

Cifras Cancelar Versão de Impressão Print

Conjeart - Positividade

Tom: F

  • 0:00 / 0:00
  			Intro: 

 
E|------7------7------7-------------| 
B|----5------5------5------5--------| 
G|--6------6------6------6----------| 
D|7---------------------------------| 
A|----------------------------------| 
E|----------------------------------| 
 

 
E|------5------5------5------------| 
B|----3------3------3------3-------| 
G|--4------4------4------4---------| 
D|5--------------------------------| 
A|---------------------------------| 
E|---------------------------------| 
 

 
E|------3------3-------0-----------| 
B|----1------1-------1-----1-------| 
G|--2------2-------2------2--------| 
D|3--------------------------------| 
A|---------------------------------| 
E|---------------------------------| 
 

 
E|------0------3------0------------| 
B|----1------1------1------1-------| 
G|--2------2------2------2---------| 
D|3--------------------------------| 
A|---------------------------------| 
E|---------------------------------| 
 

 
E|-------x----------|-------0-----0-----|-------0---|  
B|-----1------1-----|-----1-----1---1---|-----1-----| 
G|---0------0---1---|---0---------------|---0-------| 
D|------------------|-------------------|-----------| 
A|3-----------------|3------------------|3----------| 
E|------------------|-------------------|-----------| 
 

        F                           Dm 
Muitas vezes a vida trás você a escolher 
                        C 
Um caminho certo pra seguir 
                            G 
O qual você vai ter que aprender 
                                   F 
Que outros vão ter que parar aqui 

                         Dm 
Valores em você vão ascender 
                           C 
Cárater é bom pra não desistir 
                             G 
O mundo pode te obrigar a ver coisas 
                                F 
Em que vai preferir nem exixtir 

      Am         F 
Mas o bom é viver (o bom é viver) 
Dm              C 
E nunca desistir 
                G 
Ter muita fé em Deus 

E o resto é bom curtir 

 
E|------0------3-------0-----------| 
B|----1------1-------1-----1-------| 
G|--2------2-------2------2--------| 
D|3--------------------------------| 
A|---------------------------------| 
E|---------------------------------| 
 

 
E|------0------3-------0-3-0-------| 
B|----1------1-------1------(1)----| 
G|--2------2-------2---------------| 
D|3--------------------------------| 
A|---------------------------------| 
E|---------------------------------| 
 

 
E|-------0------0---| (3x) 
B|-----1------1-----| 
G|---0------0-----0-| 
D|------------------| 
A|3-----------------| 
E|------------------| 
 

 
E|-------1---0---|  
B|-----1---------| 
G|---0-----0-----| 
D|---------------| 
A|3--------------| 
E|---------------| 
 

F                        Dm 
Sempre vai ter um aqui e ali 
                            C 
Torcendo pra você descer ou cair 
                            G 
E vão ter outros pra te oferecer 
                        F 
Uma ajuda pra te reeguer 

                           Dm 
É bom ter o bem dentro de você 
                               C 
Erguer a cabeça e seguir em frente 
                           G 
Se verdadeiro e ser sempre gente 
                      F 
A positividade sempre rende 
  
Am                   F 
Mas o bom é ser feliz (o bom é ser feliz) 
Dm                C 
Sem medo e com amor 
                  G 
Pra não olha pra trás 
                           F 
Se arrepender, pois já passou 

Am                   F 
Mas o bom é ser feliz (o bom é ser feliz) 
Dm                C 
Sem medo e com amor 
                  G 
Pra não olha pra trás 

Se arrepender em vão 

Pois já passou. 

 
E|-------x----------|-------0-----0-----|-------0---|  
B|-----1------1-----|-----1-----1---1---|-----1-----| 
G|---0------0---1---|---0---------------|---0-------| 
D|------------------|-------------------|-----------| 
A|3-----------------|3------------------|3----------| 
E|------------------|-------------------|-----------| 
 

 
E|------0----| 
B|----1------| 
G|--2--------| 
D|3----------| 
A|-----------| 
E|-----------| 
    	

enviado porenviado por: tarikike
cifra enviadaCorrigida por: sem correções
logo top cifrasComente
ico música do artistaMúsicas deste artista
ico curtiuCurtiu?
ico destaqueDestaque
Petaxxon Comunicação Online

Cifras.com.br - Melhor e mais completo site de cifras e tablaturas do Brasil Mais de 1 milhão de acordes de músicas cadastradas desde 2003
As informações contidas no nosso site são colaborações de seus usuários e podem conter erros, sendo assim, não nos responsabilizamos sobre nenhuma destas.

close
menos
mais
close
Cor dos acordes:

Cor da letra:

close
Alinhar acordes a direita Alinhar acordes a esquerda Alinhar acordes em baixo Alinhar acordes no topo
close
  Mostrar todos os acordes Esconder acordes muito fáceis Esconder acordes fáceis Esconder acordes intermediários
redimensionar
glossário