Cifras e Tablaturas
Converge

Converge

Sadness Comes Home

Cifras Cancelar Versão de Impressão Print

Converge - Sadness Comes Home

Tom:

  • 0:00 / 0:00
  			



Intro/outro 
D|------------------------------------------------|| x2 
A|-3/5--------------5------------------5----------|| 
F|----4-------------4------------------4----------|| 
C|-----5-7-7^-5--2--2----2-0-2-3-2-0-2-2----------|| 
G|---------------2--2----2-0-2-3-2-0-2-2----------|| 
C|---------------2--2----2-0-2-3-2-0-2*2----------|| *whammy bend down and back 

D|------------------------------------------------|| x2 
A|-3/5-----------------------------------------5--|| 
F|----4----------------------------------------4--|| 
C|-----5-7-7^-5--2/5--5/7--7-8--8-7-5-7-5-2-2--2--|| 
G|---------------2/5--5/7--7-8--8-7-5-7-5-2-2--2--|| 
C|---------------2/5--5/7--7-8--8-7-5-7-5-2-2--2--|| 

D|-----------------------------------------------------------------|| 
A|-3/5--------------5----------------------------------------------|| 
F|----4-------------4----------------------------------------------|| 
C|-----5-7-7^-5--2--2----2-0-2-3-2-0-2----1------------------------|| 
G|---------------2--2----2-0-2-3-2-0-2----1-Swelling feedback------|| 
C|---------------2--2----2-0-2-3-2-0-2----1------------------------|| 



fast riff x3 - Once with each tail 

D|-------------------------------------------------------------------|| 
A|-8p0-7p0-5p0-4p0-5p0-7p0-5p0-4p0-3p0-3p0-3p0-3p0-1p0-1p0-1p0-1p0---|| 
F|-------------------------------------------------------------------|| 
C|-------------------------------------------------------------------|| 
G|-------------------------------------------------------------------|| 
C|-------------------------------------------------------------------|| 

fast riff tail 1 
D|-----------------------------------|| 
A|--0--0--0--0--0--0-0--0--0--0--0---|| 
F|--3^-3^-3^-3^-3^-3-3^-3^-3^-3^-3^--|| 
C|-----------------------------------|| 
G|-----------------------------------|| 
C|-----------------------------------|| 

fast riff tail 2 
D|-------------------------------------------------------------------------------|| 
A|-2/5-5-5---3-3/5-5-5---5--?/8--?/10--?/11--?/15--?/17-17---17-17---17-17---17--||  
F|--------------------------------------------------------15------15------15-----|| 
C|-------------------------------------------------------------------------------|| 
G|-------------------------------------------------------------------------------|| 
C|-------------------------------------------------------------------------------|| 
?/ Slide from anywhere lower 

fast riff tail 3 
D|-----------------------------------|| 
A|--0--0--0--0--0--0-0---------------|| 
F|--2^-2^-2^-2^-2^-2-0---------------|| 
C|-----------------------------------|| 
G|-----------------------------------|| 
C|-----------------------------------|| 



BRUTALITY! 2x once with each tail 
D|------------------------------------------------------------------------------------|| 
A|------------------------------------------------------------------------------------|| 
F|------------------------------------------------------------------------------------|| 
C|--2-----------------------2--1-----------1--0-----------3--2------------------------|| 
G|--2-----------------------2--1-----------1--0-----------3--2------------------------|| 
C|--2--2-2-2-2-2-2-2-2-2-2--2--1--1-1-1-1--1--0--0-0-0-0--3--2--2-2-2-2-2-2-2-2-2-2-2-|| 
      pm-----------------|       pm-----|       pm-----|       pm-------------------| 

tail 1 
D|---------------------|| 
A|-0--0--0--0--0--0-0--|| 
F|-2^-2^-2^-2^-2^-2-0--|| 
C|---------------------|| 
G|---------------------|| 
C|---------------------|| 

tail 2  
D|---------------------|| 
A|-0--slides & scrapes-|| 
F|-2^------------------|| 
C|---------------------|| 
G|---------------------|| 
C|---------------------|| 


fast riff +tails 
BRUTALITY! +tails 


Solo Rhythm x2 
D|--------------------------------------------------------------------|| 
A|--------------------------------------------------------------------|| 
F|--------------------------------------------------------------------|| 
C|--7-7-8-7-6-6--7-7-8-7-6-6-7-7-8-7-6-6---13---------------13-12-10--|| 
G|--7-7-8-7-6-6--7-7-8-7-6-6-7-7-8-7-6-6---13---------------13-12-10--|| 
C|--7-7-8-7-6-6--7-7-8-7-6-6-7-7-8-7-6-6---13--13-13-13-13--13-12-10--|| 
                                               pm--------| 

D|------------------------------------------------------|| 
A|------------------------------------------------------|| 
F|------------------------------------------------------|| 
C|--7-7-8-7-6-6--7-7-8-7-6-6-7-7-8-7-6-6--10--13--------|| 
G|--7-7-8-7-6-6--7-7-8-7-6-6-7-7-8-7-6-6--10--13--------|| 
C|--7-7-8-7-6-6--7-7-8-7-6-6-7-7-8-7-6-6--10--13--------|| 



Solo (probably wayyy-off here, a lot of guess work) 
D|--------------------------------------------------------------|| 
A|----------------------------------------------15^*------------||  *whammy? 
F|------?/11-?/10-?/9-?/8----14-12----14--12--------------------|| 
C|-13^*/---------------------------14---------14----------------|| 
G|--------------------------------------------------------------|| 
C|--------------------------------------------------------------|| 

D|--------------------------------------------------------------|| 
A|-13-12-11-10----13t--10t--13t-15t-17t--20^--------------------||  t=tremolo picking 
F|---------------------------------------19^--------------------|| 
C|--------------------------------------------------------------|| 
G|--------------------------------------------------------------|| 
C|--------------------------------------------------------------|| 


fast riff 

+This 
D|--------------------------------------|| 
A|-0--0--0--0--0--0-0-------------------|| 
F|-2^-2^-2^-2^-2^-2-0-------------------|| 
C|----------------------8--8--8--7--5---|| 
G|----------------------8--8--8--7--5---|| 
C|----------------------8--8--8--7--5---|| 

intro/outro 
    	

enviado porenviado por: deivcavalcanti
cifra enviadaCorrigida por: sem correções
logo top cifrasComente
ico música do artistaMúsicas deste artista
ico curtiuCurtiu?
ico destaqueDestaque
Petaxxon Comunicação Online

Cifras.com.br - Melhor e mais completo site de cifras e tablaturas do Brasil Mais de 1 milhão de acordes de músicas cadastradas desde 2003
As informações contidas no nosso site são colaborações de seus usuários e podem conter erros, sendo assim, não nos responsabilizamos sobre nenhuma destas.

close
menos
mais
close
Cor dos acordes:

Cor da letra:

close
Alinhar acordes a direita Alinhar acordes a esquerda Alinhar acordes em baixo Alinhar acordes no topo
close
  Mostrar todos os acordes Esconder acordes muito fáceis Esconder acordes fáceis Esconder acordes intermediários
redimensionar
glossário