Cifras e Tablaturas
Converge

Converge

The Dusk In Us

Cifras Cancelar Versão de Impressão
cifras

Converge - The Dusk In Us

fixar na tela  
Exibindo: vídeo-aula ver clipes redimensionar

Tom:

  
Verse 
D|---------------------------------------------------------------------------| 
A|---------------------------------------------------------------------------| 
F|---------------------------------------------------------------------------| 
C|-----0---------0-----------------------------------------------------------| 
G|-------0---7-----7---------------------------------------------------------| 
C|---0-----8---8-------------------------------------------------------------| 

D|---------------------------------------------------------------------------| 
A|---------------------------------------------------------------------------| 
F|------------------7--------------------------------------------------------| 
C|-----0---------0--5--------------------------------------------------------| 
G|-------0---7------5--------------------------------------------------------| 
C|---0-----8---8----5--------------------------------------------------------| 

Chorus 
D|---------------------------------------------------------------------------| 
A|---------------------------------------------------------------------------| 
F|---------------------------------------------------------------------------| 
C|-8-8-8-8-8-8-8-8-8-8-8-8-8-8-8-7-|-5-5-5-5-5-5-5-5-5-5-5-5-5-5---5---------| 
G|-8-8-8-8-8-8-8-8-8-8-8-8-8-8-8-7-|-5-5-5-5-5-5-5-5-5-5-5-5-5-5---5---------| 
C|-8-8-8-8-8-8-8-8-8-8-8-8-8-8-8-7-|-5-5-5-5-5-5-5-5-5-5-5-5-5-5---5---------| 
                                                                               
D|---------------------------------------------------------------------------| 
A|---------------------------------------------------------------------------| 
F|---------------------------------------------------------------------------| 
C|-3-3-3-3-3-3-3-3-3-3-3-3-3-5---5-|-5-5-5-5-5-5-5-5-5-5-5-5-5-7---7---------| 
G|-3-3-3-3-3-3-3-3-3-3-3-3-3-5---5-|-5-5-5-5-5-5-5-5-5-5-5-5-5-7---7---------| 
C|-3-3-3-3-3-3-3-3-3-3-3-3-3-5---5-|-5-5-5-5-5-5-5-5-5-5-5-5-5-7---7---------| 

D|---------------------------------------------------------------------------| 
A|---------------------------------------------------------------------------| 
F|---------------------------------------------------------------------------| 
C|-8-8-8-8-8-8-8-8-8-8-8-8-8-8-8-7-|-5-5-5-5-5-5-5-5-5-5-5-5-5-5---5---------| 
G|-8-8-8-8-8-8-8-8-8-8-8-8-8-8-8-7-|-5-5-5-5-5-5-5-5-5-5-5-5-5-5---5---------| 
C|-8-8-8-8-8-8-8-8-8-8-8-8-8-8-8-7-|-5-5-5-5-5-5-5-5-5-5-5-5-5-5---5---------| 
                                                                               
D|---------------------------------------------------------------------------| 
A|---------------------------------------------------------------------------| 
F|---------------------------------------------------------------------------| 
C|-3-3-3-3-3-3-3-3-3-3-3-3-3-5---5-|-5-5-5-5-5-5-5-5-5-5-5-5-5-5-5-7---------| 
G|-3-3-3-3-3-3-3-3-3-3-3-3-3-5---5-|-5-5-5-5-5-5-5-5-5-5-5-5-5-5-5-7---------| 
C|-3-3-3-3-3-3-3-3-3-3-3-3-3-5---5-|-5-5-5-5-5-5-5-5-5-5-5-5-5-5-5-7---------| 

Ending Riff 
D|---------------------------------------------------------------------------|\ 
A|---------------------------------------------------------------------------| \ 
F|---------------------------------------------------------------------------|  \ 
C|-0---3--5----0---3--5--8\-----0-----3--5----0----3--5--8\------------------|   \ 
G|-0---3--5----0---3--5--8\-----0-----3--5----0----3--5--8\------------------|    \ 
C|-0---3--5----0---3--5--8\-----0-----3--5----0----3--5--8\------------------|     \ 
                                                                                      2x 
D|---------------------------------------------------------------------------|     / 
A|---------------------------------------------------------------------------|    / 
F|---------------------------------------------------------------------------|   / 
C|--15---13-13-------13-13-12---15---13-13--0-----13-13-12-------------------|  / 
G|--------------(0)-------------------------0-----13-13-12-------------------| / 
C|--------------(0)-------------------------0-----13-13-12-------------------|/ 

D|--------------------------------|-------------------------------------------| 2x 
A|--------------------------------|-------------------------------------------| 
F|--------------------------------|-------------------------------------------| 
C|-0----13-13\-----0---13-13-10\--|---0---13-13\-------0------13-13-10\-------| 
G|-0----13-13\-----0---13-13-10\--|---0---13-13\-------0------13-13-10\-------| 
C|-0----13-13\-----0---13-13-10\--|---0---13-13\-------0------13-13-10\-------| 



************************************ 

| \   Slide down 

************************************ 
  

top 5 | converge
top rock'n roll
Outras músicas do artista letras do(a) Converge
Top cifras »Top artistas »
Petaxxon Comunicação Online
Cifras.com.br - Melhor e mais completo site de cifras e tablaturas do Brasil
Mais de 1 milhão de acordes de músicas cadastradas desde 2003
As informações contidas no nosso site são colaborações de seus usuários e podem conter erros, sendo assim, não nos responsabilizamos sobre nenhuma destas.
close
menos
mais
close
Cor dos acordes:

Cor da letra:

 

save
close
close
 
redimensionar