Cifras e Tablaturas
Corinhos Evangélicos

Corinhos Evangélicos

Aliança Do Senhor

Cifras Cancelar Versão de Impressão Print

Corinhos Evangélicos - Aliança Do Senhor

Tom: C

  • 0:00 / 0:00
  			               




1   |   |   |   |  |   |   |   |  |   |   |   |  |   |   |   |  |   |   |   |  
E |--------------|--------------|--------------|--------------|--------------| 
B |--------------|--------------|--------------|--------------|--------------| 
G |--------------|--------------|--------------|--------------|--------------| 
D |--------------|--------------|--------------|--------------|--------------| 
A |--------------|--------------|--------------|--------------|--------------| 
E |--------------|--------------|--------------|--------------|--------------| 



6   |   |   |   |  |   |   |   |  |   |   |   |  |   |   |   |  |   |   |   |     
E |--------------|--------------|--------------|--------------|-3---3-3-----0-5-| 
B |--------------|--------------|--------------|--------------|-----------------| 
G |--------------|--------------|--------------|--------------|-----------------| 
D |--------------|--------------|--------------|--------------|-----------------| 
A |--------------|--------------|--------------|--------------|-----------------| 
E |--------------|--------------|--------------|--------------|-----------------| 



11  |   |   |   |    |   |   |   |     |   |   |   |    |   |   |   |     
E |----------------|-------5---------|--------------0-|---------------5-| 
B |-----5-5------5-|-6---8-------6---|----------------|-8-8-----8---5---| 
G |----------------|---------------7-|----------------|-----------------| 
D |----------------|-----------------|----------------|-----------------| 
A |----------------|-----------------|----------------|-----------------| 
E |----------------|-----------------|----------------|-----------------| 



15  |   |   |   |    |   |   |   |     |   |   |   |     |   |   |   |     
E |----------------|-------5---------|-------------7-8-|-----8-8-----8-7-| 
B |--5-----------5-|-6---8-------6---|---------10------|-----------------| 
G |----------------|---------------7-|-----------------|-----------------| 
D |----------------|-----------------|-----------------|-----------------| 
A |----------------|-----------------|-----------------|-----------------| 
E |----------------|-----------------|-----------------|-----------------| 



19  |   |   |   |     |   |   |   |     |   |   |   |     |   |   |   |     
E |-------------7-7-|-8-8-----8-7-5-3-|---------0-----0-|-----5-5-----0-0-| 
B |-----------------|-----------------|-------------3---|-----------------| 
G |-----------------|-----------------|-----------------|-----------------| 
D |-----------------|-----------------|-----------------|-----------------| 
A |-----------------|-----------------|-----------------|-----------------| 
E |-----------------|-----------------|-----------------|-----------------| 



23  |   |   |   |     |   |   |   |     |   |   |   |     |   |    |   |     
E |---------------0-|-1-1-----0-------|---------8---7-8-|-----8-10-----8-7-| 
B |--3----------3---|-------------3-1-|-----------------|------------------| 
G |-----------------|-----------------|-----------------|------------------| 
D |-----------------|-----------------|-----------------|------------------| 
A |-----------------|-----------------|-----------------|------------------| 
E |-----------------|-----------------|-----------------|------------------| 



27  |   |   |   |    |   |   |   |     |   |   |   |     |   |   |   |     
E |--------------7-|-8-8-----7---5-3-|---------0-----0-|-----5-5-----0-0-| 
B |--10-8----------|-----------------|-------------3---|-----------------| 
G |----------------|-----------------|-----------------|-----------------| 
D |----------------|-----------------|-----------------|-----------------| 
A |----------------|-----------------|-----------------|-----------------| 
E |----------------|-----------------|-----------------|-----------------| 



31  |   |   |   |    |   |   |   |  |   |   |   |     |   |   |   |     
E |----------5---3-|--------------|---------5---7-8-|-----8-8-----8-7-| 
B |--3---3---------|--------------|-----------------|-----------------| 
G |----------------|--------------|-----------------|-----------------| 
D |----------------|--------------|-----------------|-----------------| 
A |----------------|--------------|-----------------|-----------------| 
E |----------------|--------------|-----------------|-----------------| 



35  |   |   |   |      |   |    |   |  |   |   |   |     |   |   |   |    
E |----------------7-|-8---7---------|---------7---8-8-|----------------| 
B |-------------10---|-------10------|------10---------|-----8-8------8-| 
G |------------------|---------------|-----------------|----------------| 
D |------------------|---------------|-----------------|----------------| 
A |------------------|---------------|-----------------|----------------| 
E |------------------|---------------|-----------------|----------------| 



39  |   |    |   |     |   |   |   |  |   |   |   |     |   |   |   |     
E |--------------7---|--------------|---------------5-|---------5---5-7-| 
B |-----8-10-------8-|--------------|---------6---8---|-----------------| 
G |-10---------------|--------------|-----------------|-----------------| 
D |------------------|--------------|-----------------|-----------------| 
A |------------------|--------------|-----------------|-----------------| 
E |------------------|--------------|-----------------|-----------------| 



43  |   |   |   |     |   |   |   |     |   |   |   |     |   |   |   |     
E |---------5---7-8-|-----7-8-----7-5-|---------8---5---|-----------------| 
B |-----------------|-----------------|---------------8-|---------5-------| 
G |-----------------|-----------------|-----------------|-------------5-7-| 
D |-----------------|-----------------|-----------------|-----------------| 
A |-----------------|-----------------|-----------------|-----------------| 
E |-----------------|-----------------|-----------------|-----------------| 



47  |   |   |   |     |   |   |   |  |   |   |   |     |   |   |   |     
E |-----------------|--------------|---------------5-|---------5---5-7-| 
B |---------5---6-8-|--------------|---------6---8---|-----------------| 
G |-----------------|--------------|-----------------|-----------------| 
D |-----------------|--------------|-----------------|-----------------| 
A |-----------------|--------------|-----------------|-----------------| 
E |-----------------|--------------|-----------------|-----------------| 



51  |   |   |   |     |   |   |   |     |   |   |   |     |   |   |   |     
E |---------5---7-8-|-----7-8-----7-5-|---------8---5---|-----------------| 
B |-----------------|-----------------|---------------8-|---------5-------| 
G |-----------------|-----------------|-----------------|-------------5-7-| 
D |-----------------|-----------------|-----------------|-----------------| 
A |-----------------|-----------------|-----------------|-----------------| 
E |-----------------|-----------------|-----------------|-----------------| 



55  |   |   |   |     |   |   |   |  |   |   |   |     |   |    |   |     
E |-----------------|--------------|---------8---7-8-|-----8-10-----8-7-| 
B |---------5-------|--------------|-----------------|------------------| 
G |-------------7-5-|--------------|-----------------|------------------| 
D |-----------------|--------------|-----------------|------------------| 
A |-----------------|--------------|-----------------|------------------| 
E |-----------------|--------------|-----------------|------------------| 



59  |   |   |   |    |   |   |   |     |   |   |   |     |   |   |   |     
E |--5--3--------7-|-8-8-----7---5-3-|---------0-----0-|-----5-5-----0-0-| 
B |----------------|-----------------|-------------3---|-----------------| 
G |----------------|-----------------|-----------------|-----------------| 
D |----------------|-----------------|-----------------|-----------------| 
A |----------------|-----------------|-----------------|-----------------| 
E |----------------|-----------------|-----------------|-----------------| 



63  |   |   |   |    |   |   |   |  |   |   |   |     |   |   |   |     
E |----------5---3-|--------------|---------5---7-8-|-----8-8-----8-7-| 
B |--3---3---------|--------------|-----------------|-----------------| 
G |----------------|--------------|-----------------|-----------------| 
D |----------------|--------------|-----------------|-----------------| 
A |----------------|--------------|-----------------|-----------------| 
E |----------------|--------------|-----------------|-----------------| 



67  |   |   |   |      |   |    |   |  |   |   |   |     |   |   |   |    
E |----------------7-|-8---7---------|---------7---8-8-|----------------| 
B |-------------10---|-------10------|------10---------|-----8-8------8-| 
G |------------------|---------------|-----------------|----------------| 
D |------------------|---------------|-----------------|----------------| 
A |------------------|---------------|-----------------|----------------| 
E |------------------|---------------|-----------------|----------------| 



71  |   |    |   |     |   |   |   |  |   |   |   |     |   |   |   |     
E |--------------7---|--------------|---------------5-|---------5---5-7-| 
B |-----8-10-------8-|--------------|---------6---8---|-----------------| 
G |-10---------------|--------------|-----------------|-----------------| 
D |------------------|--------------|-----------------|-----------------| 
A |------------------|--------------|-----------------|-----------------| 
E |------------------|--------------|-----------------|-----------------| 



75  |   |   |   |     |   |   |   |     |   |   |   |     |   |   |   |     
E |---------5---7-8-|-----7-8-----7-5-|---------8---5---|-----------------| 
B |-----------------|-----------------|---------------8-|---------5-------| 
G |-----------------|-----------------|-----------------|-------------5-7-| 
D |-----------------|-----------------|-----------------|-----------------| 
A |-----------------|-----------------|-----------------|-----------------| 
E |-----------------|-----------------|-----------------|-----------------| 



79  |   |   |   |     |   |   |   |  |   |   |   |     |   |   |   |     
E |-----------------|--------------|---------------5-|---------5---5-7-| 
B |---------5---6-8-|--------------|---------6---8---|-----------------| 
G |-----------------|--------------|-----------------|-----------------| 
D |-----------------|--------------|-----------------|-----------------| 
A |-----------------|--------------|-----------------|-----------------| 
E |-----------------|--------------|-----------------|-----------------| 



83  |   |   |   |     |   |   |   |     |   |   |   |     |   |   |   |     
E |---------5---7-8-|-----7-8-----7-5-|---------8---5---|-----------------| 
B |-----------------|-----------------|---------------8-|---------5-------| 
G |-----------------|-----------------|-----------------|-------------5-7-| 
D |-----------------|-----------------|-----------------|-----------------| 
A |-----------------|-----------------|-----------------|-----------------| 
E |-----------------|-----------------|-----------------|-----------------| 



87  |   |   |   |     |   |   |   |  |   |   |   |     |   |   |   |     
E |-----------------|--------------|---------8---5---|-----------------| 
B |---------5-------|--------------|---------------8-|---------5-------| 
G |-------------7-5-|--------------|-----------------|-------------5-7-| 
D |-----------------|--------------|-----------------|-----------------| 
A |-----------------|--------------|-----------------|-----------------| 
E |-----------------|--------------|-----------------|-----------------| 



91  |   |   |   |     |   |   |   |  |   |   |   |     |   |   |   |     
E |-----------------|--------------|---------8---5---|-----------------| 
B |---------5-------|--------------|---------------8-|---------5-------| 
G |-------------7-5-|--------------|-----------------|-------------5-7-| 
D |-----------------|--------------|-----------------|-----------------| 
A |-----------------|--------------|-----------------|-----------------| 
E |-----------------|--------------|-----------------|-----------------| 



95  |   |   |   |     |   |   |   |  |   |   |   |     |   |   |   |     
E |-----------------|--------------|---------8---5---|-----------------| 
B |---------5-------|--------------|---------------8-|---------5-------| 
G |-------------7-5-|--------------|-----------------|-------------5-7-| 
D |-----------------|--------------|-----------------|-----------------| 
A |-----------------|--------------|-----------------|-----------------| 
E |-----------------|--------------|-----------------|-----------------| 



99  |   |   |   |      |   |   |   |  |   |   |   |  |   |   |   |  
E |---------0--------|--------------|--------------|--------------| 
B |------------------|--------------|--------------|--------------| 
G |-------------7----|--------------|--------------|--------------| 
D |---------------10-|--------------|--------------|--------------| 
A |------------------|--------------|--------------|--------------| 
E |------------------|--------------|--------------|--------------| 
    	

enviado porenviado por: HELON
cifra enviadaCorrigida por: sem correções
logo top cifrasComente
ico música do artistaMúsicas deste artista
ico curtiuCurtiu?
ico destaqueDestaque
Petaxxon Comunicação Online

Cifras.com.br - Melhor e mais completo site de cifras e tablaturas do Brasil Mais de 1 milhão de acordes de músicas cadastradas desde 2003
As informações contidas no nosso site são colaborações de seus usuários e podem conter erros, sendo assim, não nos responsabilizamos sobre nenhuma destas.

close
menos
mais
close
Cor dos acordes:

Cor da letra:

close
Alinhar acordes a direita Alinhar acordes a esquerda Alinhar acordes em baixo Alinhar acordes no topo
close
  Mostrar todos os acordes Esconder acordes muito fáceis Esconder acordes fáceis Esconder acordes intermediários
redimensionar
glossário