Cifras e Tablaturas
Corinhos Evangélicos

Corinhos Evangélicos

Ao Teu Dispor

Cifras Cancelar Versão de Impressão Print

Corinhos Evangélicos - Ao Teu Dispor

Tom: F

  • 0:00 / 0:00
  			AO TEU DISPOR 
(Eu quero ser usado meu Senhor) 


E|-------------------5--3-5-6-6-5-3-----| 
B|-6-6-5-6---6-6-5-6----------------6-8-| 
G|---------5----------------------------| 
D|--------------------------------------| 
A|--------------------------------------| 
E|--------------------------------------| 
TOM: G 

E|-------------------7--5-7-8-8-7-5------| 
B|-8-8-7-8---8-8-7-8----------------8-10-| 
G|---------7-----------------------------| 
D|---------------------------------------| 
A|---------------------------------------| 
E|---------------------------------------| 
    	

enviado porenviado por: lcfonseca
cifra enviadaCorrigida por: sem correções
logo top cifrasComente
ico música do artistaMúsicas deste artista
ico curtiuCurtiu?
ico destaqueDestaque
Petaxxon Comunicação Online

Cifras.com.br - Melhor e mais completo site de cifras e tablaturas do Brasil Mais de 1 milhão de acordes de músicas cadastradas desde 2003
As informações contidas no nosso site são colaborações de seus usuários e podem conter erros, sendo assim, não nos responsabilizamos sobre nenhuma destas.

close
menos
mais
close
Cor dos acordes:

Cor da letra:

close
Alinhar acordes a direita Alinhar acordes a esquerda Alinhar acordes em baixo Alinhar acordes no topo
close
  Mostrar todos os acordes Esconder acordes muito fáceis Esconder acordes fáceis Esconder acordes intermediários
redimensionar
glossário