Cifras e Tablaturas
Corinhos Evangélicos

Corinhos Evangélicos

Muito Além Do Véu

Compositor : (Corinhos Evangélicos)

Cifras Cancelar Versão de Impressão Print

Corinhos Evangélicos - Muito Além Do Véu

Tom: D

  • 0:00 / 0:00
  			 
COMPASSO:  4/4 




1   |       |   |       |      |      |   |   |    |       |   |       |        
E |--------------------------|-------------------|----------------------------| 
B |-2-3-3-3-----2-3-3-3--2-2-|--0---0------------|-2-3-3-3-----2-3-3-3--2-3-2-| 
G |--------------------------|----2--------------|----------------------------| 
D |----------0---------------|-----------------0-|----------0-----------------| 
A |--------------------------|-------------------|----------------------------| 
E |--------------------------|-------------------|----------------------------| 



4   |   |   |   |       |       |      |    |         |    |   |   |  
E |-------------------|-----------------------------|---------------| 
B |--0----------0-----|-0-0-0-0----0----------------|---------------| 
G |-------------------|----------2---2--------0-2-2-|---------------| 
D |---------------0-0-|-----------------4-4-4-------|--2-2----------| 
A |-------------------|-----------------------------|---------------| 
E |-------------------|-----------------------------|---------------| 



7   |       |   |       |        |   |   |   |    |       |      |     |         
E |----------------------------|----------------|------------------------------| 
B |-2-3-3-3-3---2-3-3-3--2-3-2-|--0-------------|-0-0-0-0----0-----------------| 
G |----------------------------|----------------|----------2---2-2-------0-2-2-| 
D |----------------------------|--------------0-|------------------4-4-4-------| 
A |----------------------------|----------------|------------------------------| 
E |----------------------------|----------------|------------------------------| 



10  |   |   |   |         |    |      |   |         |   |      |    |       
E |---------------------|-------------------------|-----------------------| 
B |---------------------|-------------------------|-----------------------| 
G |-2-------------------|-------------------------|----------2--0-----0---| 
D |---2------2--2-0---2-|--0-0----0-2-----2-0-2-4-|------0-4------4-4---2-| 
A |-----------------4---|-------4-----------------|-----------------------| 
E |---------------------|-------------------------|-----------------------| 



13  |   |      |   |   |   |      |   |        |   |      |    |      
E |------------------|-----------------------|----------------------| 
B |------------------|-----------------------|----------------------| 
G |------------------|-----------------------|----------2--0----0---| 
D |------0-2-4-----2-|-0------0--------0---4-|--4---0-4------4----2-| 
A |------------------|------4---7--7-----7---|----------------------| 
E |------------------|-----------------------|----------------------| 



16  |   |       |    |      |   |   |   |  |   |   |   |  
E |-----------------------|--------------|--------------| 
B |-----------------------|--------------|--------------| 
G |-----------------------|--------------|--------------| 
D |-----2-0-2-4--2-0----0-|--------------|--------------| 
A |-----------------------|--------------|--------------| 
E |-------------------9---|--------------|--------------| 
    	

enviado porenviado por: HELON
cifra enviadaCorrigida por: sem correções
logo top cifrasComente
ico música do artistaMúsicas deste artista
ico curtiuCurtiu?
ico destaqueDestaque
Petaxxon Comunicação Online

Cifras.com.br - Melhor e mais completo site de cifras e tablaturas do Brasil Mais de 1 milhão de acordes de músicas cadastradas desde 2003
As informações contidas no nosso site são colaborações de seus usuários e podem conter erros, sendo assim, não nos responsabilizamos sobre nenhuma destas.

close
menos
mais
close
Cor dos acordes:

Cor da letra:

close
Alinhar acordes a direita Alinhar acordes a esquerda Alinhar acordes em baixo Alinhar acordes no topo
close
  Mostrar todos os acordes Esconder acordes muito fáceis Esconder acordes fáceis Esconder acordes intermediários
redimensionar
glossário