Cifras e Tablaturas
Counterparts

Counterparts

Arms Like Teeth

Cifras Cancelar Versão de Impressão
cifras

Counterparts - Arms Like Teeth

fixar na tela  
Exibindo: vídeo-aula ver clipes redimensionar

Tom:

  This is actually a pretty tricky song, so there are some cases where I won't have tabbed both guitar parts. 
I think I've got most of it though. 

     D|-----------------------------------------------------| 
     A|-----------------------------------------------------| 
GTR  F|-9-----10----10---------12--10-9-----10----10--------| 
 1   C|-10----10----10-----10---------10----10----10--------| 
     G|-12----12----8---8-------------12----12----8---------| 
     C|-----------------------------------------------------| 
                        *  * 

     D|---------------------------------------------------| 
     A|---------------------------------------------------| 
GTR  F|-9-----10----10------------------------------------| 
 2   C|-10----10----8----------10----10----10-------------| 
     G|-12----12----6----------12----12----8---pick slide-| 
     C|------------------------14----14----10-------------| 
                    

D|-----------------------------0-0-0-0-0-0-0-0-0-0-0-0-| 
A|-----------------------------0-0-0-0-0-0-0-0-0-0-0-0-| 
F|-9---9---9-----10--10--10----5-5-5-5-5-5-7-7-7-7-7-7-| 
C|-10--10--10----10--10--10----5-5-5-5-5-5-7-7-7-7-7-7-| 
G|-12--12--12----12--12--12----3-3-3-3-3-3-5-5-5-5-5-5-| 
C|-----------------------------------------------------| 

D|-----------------------------------------------------------------| 
A|-----------------------------------------------------------------| 
F|-1010-10-1010-10-1212-12-1212-12-1010-10-1010-10-1010-10-1010-10-| 
C|-1010-10-1010-10-1010-10-1010-10-1010-10-1010-10-1010-10-1010-10-| 
G|-1212-12-1212-12-8-8--8--8-8--8--8-8--8--8-8--8--8-8--8--8-8--8--| 
C|-----------------------------------------------------------------| 

     D|-------------------------------------| 
     A|--------------------------11---------| 
GTR  F|-------------8-----8--10------10--8--| 
 1   C|-10--10--10-----8--------------------| 
     G|-12--12--12--------------------------| 
     C|-14--14--14--------------------------| 

     D|-------------------------------------------| 
     A|-------------------------------------------| 
GTR  F|---------10--------------------------------| 
 2   C|-10--10--10--------------------------------| 
     G|-12--12--12--------------------------------| 
     C|-14--14------7-7-7-7-7-7-7-7-7-7-7-7-7-7-7-| 
                    * * * * * * * * * * * * * * * 

     D|-------------------------------------------| 
     A|-------------------------------------------| 
GTR  F|---------10--------------------------------| 
1+2  C|-10--10--10--------------------------------| 
     G|-12--12--12--------------------------------| 
     C|-14--14------7-7-7-7-7-7-7-7-7-7-7-7-7-7-7-| 
                    * * * * * * * * * * * * * * * 

     D|-----------------------------------------------| 
     A|-----------------------------------------------| 
GTR  F|-9---9---10------------------------------------| 
 1   C|-10--10--10--2-2-2-2-2-2-2-2-2-2-2-2-2-2-2-2-2-| 
     G|-12--12--12--0-0-0-0-0-0-0-0-0-0-0-0-0-0-0-0-0-| 
     C|-----------------------------------------------| 
                    * * * * * * * * * * * * * * * * * 

     D|-----------------------------------------------| 
     A|-----------------------------------------------| 
GTR  F|-9---9---10------------------------------------| 
 2   C|-10--10--10--2-2-2-2-2-2-2-2-2---4---2---2-----| 
     G|-12--12--12--0-0-0-0-0-0-0-0-0-0-0-0-0-0-0-0-0-| 
     C|-----------------------------------------------| 
                    * * * * * * * *   *   *   *   * * 

     D|-----------------------------------------------| 
     A|-----------------------------------------------| 
GTR  F|-9---9---9-------------------------------------| 
 1   C|-10--10--10--2-2-2-2-2-2-2-2-2-2-2-2-2-2-2-2-2-| 
     G|-12--12--12--0-0-0-0-0-0-0-0-0-0-0-0-0-0-0-0-0-| 
     C|-----------------------------------------------| 
                   * * * * * * * * * * * * * * * * * 

     D|----------------------------------------------| 
     A|----------------6-----6-----6-----6-----6-----| 
GTR  F|-9---9---10--9-----9-----9-----9-----9-----9--| 
 2   C|-10--10--10-----------------------------------| 
     G|-12--12--12-----------------------------------| 
     C|----------------------------------------------| 
                

 D|---------------------00-0-00-0-----------------| 
 A|---------------------00-0-00-0-----------------| 
 F|-------5----------9--55-5-55-5-1212-12-1414-14-| 
 C|----7-----8--10------55-5-55-5-----------------| 
 G|---------------------33-3-33-3-1010-10-1212-12-| 
 C|-7----------------------------------------------| 

 D|---------------------------------------------------------| 
 A|---------------------------------------------------------| 
 F|-------5------------9----------9----------------10-10-10-| 
 C|----7-----8--10-----10---------10------------10-10-10-10-| 
 G|-----------------8--8----------8----------------12-12-12-| 
 C|-7----------------------000000----000000-/12-------------| 
                           ******    ****** 

 D|--------------------------------------------------------------| 
 A|----------------------------------------8---------------------| 
 F|-9---9---9----10--10--10---10--10-5/9\7---10-9----10-9---10-9-| 
 C|-10--10--10---10--12--10---10--10--------------10------10-----| 
 G|-12--12--12---12--12--12---8---8------------------------------| 
 C|--------------------------------------------------------------| 


 D|---------------------------------------------------------| 
 A|---------------------------------------------------------| 
 F|-9--9--9--------------10--9--7--10--9---7----------------| 
 C|-10-10-10---5--5--5--------------------------------------| 
 G|-12-12-12---3--3--3---8---7--5--8---7---5--10101010-8888-| 
 C|------------0--0--0--------------------------------------| 
                                               * * * * **** 

     D|--------------------------------------------------------------| 
     A|-13-----------------------------------------------------16^---| 
GTR  F|-----10--9--10------9-----9h10h12-12--10----10--12--10--18^---| 
 1   C|----------------10-----10----------------10-------------------| 
     G|--------------------------------------------------------------| 
     C|--------------------------------------------------------------| 


     D|---------------------------------------------------------------------| 
     A|---------------------------------------------------------------------| 
GTR  F|---------------------------------------------------------------------| Can't make out the   
 2   C|-101010---------------333--------------------------------------------| middle of this bit. 
     G|--------888-77-88-333-----33-55-77--------------------------88-77----| 
     C|------------------------------------------------------------------88-| 
        * * *  *** ** ** *** *** ** ** **                          ** ** ** 

     D|-------------------13--12--------------------------------------------------------------------13-| 
     A|-13--------------------------13--10----------13-13----------13-13----------13-13-15p13-10-10----| 
GTR  F|-----10--9--8-----------------------12h14p12-------12h14p12-------12h14p12----------------------| 
 1   C|---------------10-------------------------------------------------------------------------------| 
     G|------------------------------------------------------------------------------------------------| 
     C|------------------------------------------------------------------------------------------------| 

     D|---------------------------------------------------------------------| 
     A|---------------------------------------------------------------------| 
GTR  F|---------------------------------------------------------------------|   
 2   C|-101010---------------333--------------------------------------------| 
     G|--------888-77-88-333-----33-55-77--------------------------88-77----| 
     C|------------------------------------------------------------------88-| 
        * * *  *** ** ** *** *** ** ** **                          ** ** ** 

     D|-15------17------------------13--15------17-----------------------| 
     A|-----13--------------13--------------13---------------------------| 
GTR  F|-------------------------14---------------------------------------| 
 1   C|------------------------------------------------------------------| 
     G|------------------------------------------------------------------| 
     C|------------------------------------------------------------------| 

     D|--------------------------------------------------------------------| 
     A|--------------------------------------------------------------------| 
GTR  F|--------------------------------------------------------------------| 
 2   C|------------------------------------------------22----33----5-3-2---| 
     G|--------------------------------------------111----33----33-------3-| 
     C|--------------------------------------------------------------------| 
                                                   *** ** ** ** ** * * * * 

     D|-------------------------------------------------------------------------------------| 
     A|-------------------------------------------------------------------------------------| 
GTR  F|--------------------------------------------------------------5--5-------------------| 
 1   C|-------2----------------------2--------------------2-------2--2--2---------2h3h5-3-2-| 
     G|-1-1-1----1-1-----------1-1-1----1-1---------1-1-1---1-1-1----------000330-----------| 
     C|-------------------------------------------------------------------------------------| 
        * * *    * *           * * *    * *         * * *   * * *          ****** 

     D|------------------------------------------------------------------------------------| 
     A|------------------------------------------------------------------------------------| 
GTR  F|--------------------------------------7p5---------------------5-5-------------------| 
 2   C|---------------3-3------------------------7--------2-------2--2-2---------2h3h5-3-2-| 
     G|-------------------3-3-----------------------1-1-1---1-1-3---------000330-----------| 
     C|------------------------------------------------------------------------------------| 
                                                    * * *   * * *         ****** 

D|----------------------------------------------------------------------------| 
A|--------------------------------5-5-----------------------------------------| 
F|---------------5--------------------5-5---------------5---------------------| 
C|-0-0-0-2-----0----3-0-0-0-2-0-3---------0-0-0-2-----0----3------------------| 
G|-----------------------------------------------------------0-0-0-0-0-0-0-1--| 
C|----------0--------------------------------------0--------------------------| 
   * * *       *                                             * * *   * * * 

     D|------------------------------------------------------------------------------------------------------| 
     A|------------------------------------------------------------------------------------------------------| 
GTR  F|--------------------------------------------------------------5--5-----10101010-9999-12121212-14141414| 
 1   C|-------2----------------------2--------------------2-------2--2--2------------------------------------| 
     G|-1-1-1----1-1-----------1-1-1----1-1---------1-1-1---1-1-1---------000-8-8-8-8--7777-10101010-12121212| 
     C|------------------------------------------------------------------------------------------------------| 
        * * *    * *           * * *    * *         * * *   * * *         ***  

     D|------------------------------------------------------------------------------------------------------| 
     A|------------------------------------------------------------------------------------------------------| 
GTR  F|--------------------------------------7p5---------------------5-5------10101010-9999-12121212-14141414| 
 2   C|---------------3-3------------------------7--------2-------2--2-2-------------------------------------| 
     G|-------------------3-3-----------------------1-1-1---1-1-3---------000-8-8-8-8--7777-10101010-12121212| 
     C|------------------------------------------------------------------------------------------------------| 
                                                    * * *   * * *         *** 

    D|-----------------------------------------------------------| 
    A|-----------------------------------------------------------| 
GTR F|-----------------------------------------------------------| 
 1  C|-----------------------------------------------------------| 
    G|-----------------------------------------------------------| 
    C|-0000-0-0----00000----0000-0-0000-0-0----00000----00000000-| 
       **** * *    *****    **** * **** * *    *****    ******** 

    D|-------------------------------------------------------------| 
    A|-------------------------------------------------------55----| 
GTR F|----------------------------------------------------------55-| 
 1  C|-------------------------------------------------------------| 
    G|-------------------------------------------------------------| 
    C|-0000-0-0----00000----0000-0-0000-0-0----00000----0000-------| 
       **** * *    *****    **** * **** * *    *****    **** 

D|------------------------------------------------------------------------| 
A|------------------------------------------------------------------------| 
F|-------9------------------------------9--9------------------------------| 
C|----------------------------------8-8-8--8--------9---------------------| 
G|----------------------------------8-8-8--8------------------------------| 
D|-8-8-8----8-8-8-10-8-8-10-8-8-8-8-8-8-8--8--0-0-0---0-0-0-8-10-10-8-0-0-| 
   * * *    * * * *  * * *  * * * *           * * *   * * * * *  *  * * * 

D|----------------------------------12----------12-13--12------15/17-17----| 
A|-------------------------15-13-15----15-13-15------------13--------------| 
F|-------------------------------------------------------------------------| 
C|-12----12-14-15-14-15-17-------------------------------------------------| 
G|----15-------------------------------------------------------------------| 
D|-------------------------------------------------------------------------| 

D|-------------------------------------------------------------| 
A|-8----------8--8---------------------------------------------| 
F|----10--10--------10h12-10h12-10-10-10-10-10-10-10-10--9-----| 
C|----------------------------------------------------------10-| 
G|-------------------------------------------------------------| 
D|-------------------------------------------------------------| 

D|-13--12--------/17----------------15--13--12----------------| 
A|---------13\10------15--13--15----------------13------13----| 
F|--------------------------------------------------14--------| 
C|------------------------------------------------------------| 
G|------------------------------------------------------------| 
D|------------------------------------------------------------| 

D|------------------------------------12---------17/20--15/17----15BUr-------| 
A|-13--11--10-----------------------------13-13---------------13-------13----| 
F|-------------12--9--10--9--10----9-----------------------------------------| BU = Bend up 
C|---------------------------------------------------------------------------| r = release 
G|---------------------------------------------------------------------------| 
D|---------------------------------------------------------------------------| 
  

top 5 | counterparts
top rock'n roll
Outras músicas do artista letras do(a) Counterparts
5.
Rope
Top cifras »Top artistas »
Petaxxon Comunicação Online
Cifras.com.br - Melhor e mais completo site de cifras e tablaturas do Brasil
Mais de 1 milhão de acordes de músicas cadastradas desde 2003
As informações contidas no nosso site são colaborações de seus usuários e podem conter erros, sendo assim, não nos responsabilizamos sobre nenhuma destas.
close
menos
mais
close
Cor dos acordes:

Cor da letra:

 

save
close
close
 
redimensionar