Cifras e Tablaturas
Counterparts

Counterparts

No Servant Of Mine

Cifras Cancelar Versão de Impressão
cifras

Counterparts - No Servant Of Mine

fixar na tela  
Exibindo: vídeo-aula ver clipes redimensionar
  

Tuning: D G C F A D


Riff 1, Guitar 1 & 2 - 00:00 - 00:09 
- -14-----14\---------------14-------------------------------- 
- -10-----10\---------------10-----7-------------------------- 
- -12-----12\---------------12-----10b------------------------ 
- -10-----10\---------------10-------------------5---4h5-5/--- 
- -------------------------------------------5/7---7---------- 
- ----0-0----------------------0-0-----0-0-------------------- 
PM    ...                      ...     .           . 
- ------------------------------------------------------------ 
- ------------------------------------------------------7--- 
- -0------0-----------------0------0------------------7-5- 
- -4------4-----------------4------4-------------5------------ 
- -2--2-2-2-----3-3-3-3---3-2--2-2-2---2-----5/7---7-7-------- 
- -0--0-0-0-----0-0-0-0---0-0--0-0-0---0-0-------------------- 
PM    ...       ...........    ...     .           ... 


- -14-----14\---------------14-----14\------------------------------- 
- -10-----10\---------------10-----10\------------------------------- 
- -12-----12\---------------12-----12\-----------------------0-0----- 
- -10-----10\---------------10-----10\-------------------4---4-4----- 
- --------------3-3-3-3---3--------------3-3-3-3---3-3/5-----5-5----- 
- ----0-0-------0-0-0-0---0----0-0-------0-0-0-0---0-------0--------- 
PM    ...       ...........    ...       ...........       . 
- ------------------------------------------------------------------- 
- -------------------------5--------------------------------------- 
- -------------------------5-------------------------------0-0----- 
- --------------------------0----------------\\\---------4---4-4----- 
- -------------------------------------------\\\-----3/5-----5-5----- 
- -------------------------------------------\\\-----------0--------- 
PM                                                         . 


Riff 2, Guitar 1 & 2 - 00:09 - 00:28 - x2 
- --------------------------------------------------------------------- 
- --------------------------------------------------------------7---- 
- -0------0-----------------0------0--------------------------7--5- 
- -4------4-----------------4------4---------------------5------------- 
- -2--2-2-2-----3-3-3-3---3-2--2-2-2---------3-333-3-5-7---7-7--------- 
- -0--0-0-0-----0-0-0-0---0-0--0-0-0---------0-000-0------------------- 
PM    ...       ...........    ...           ................. 
- -14-----14\---------------14-----14\--------------------------------- 
- -10-----10\---------------10-----10\--------------------------------- 
- -12-----12\---------------12-----12\-------------------4-------11h12- 
- -10-----10\---------------10-----10\---------------4-5---5-5-0------- 
- --------------3-3-3-3---3------------------3-333-3------------------- 
- ----0-0-------0-0-0-0---0----0-0-----------0-000-0------------------- 
PM    ...       ...........    ...           ................... 


- --------------------------------------------------------------------- 
- --------------------------------------------------------------------- 
- -0------0-----------------0------0-------------------------------4--- 
- -4------4-----------------4------4-----------------9-----7---4h5----- 
- -2--2-2-2-----3-3-3-3---3-2--2-2-2---------3-333-3-7-7-7-5-5--------- 
- -0--0-0-0-----0-0-0-0---0-0--0-0-0---------0-000-0-7-7-7-5-5--------- 
PM    ...       ...........    ...           .......   ...   . 
- -14-----14\---------------14-----14\--------------------------------- 
- -10-----10\---------------10-----10\--------------------------------- 
- -12-----12\---------------12-----12\--------------------------------- 
- -10-----10\---------------10-----10\---------------9-----7--------9-- 
- --------------3-3-3-3---3------------------3-333-3-7-7-7-5-5-9h10---- 
- ----0-0-------0-0-0-0---0----0-0-----------0-000-0-7-7-7-5-5--------- 
PM    ...       ...........    ...           ................... 


Riff 3, Guitar 1 & 2 - 00:28 - 00:30 
- ----------------------------------- 
- ------------------------8---------- 
- ---------------------11---11------- 
- -------------------9---------9-7\5- 
- -3-----6-----0---7----------------- 
- ----------------------------------- 
PM ............................. 
AP ................ 
- ----------------------------------- 
- ----------------------------------- 
- ----------------------------------- 
- -----------------2----------------- 
- -3-----6-----0---2-2--------------- 
- -----------------0-0--------------- 
PM ................  . 
AP ................ 


Riff 4a, Guitar 1 & 2 - 00:30 - 00:50 
- ----------------------------------------------------------------- 
- ----------------------------------------------------------------- 
- -------2---------4---2-----2---------------0--------------------- 
- ---5-------5-------5---5-------5-------4-------4---------5-5-5-5- 
- -3-------------3-------------------7---------------7-----2-2-2-2- 
- ---------------------------------5---------------------5--------- 
PM ...           .   ...           .......               .   ..... 
- ----------------------------------------------------------------- 
- -8-8---8---8---8-7-7---7---7---7--------------------------------- 
- -0-0---0---0---0-0-0---0---0---0-0-0---0---0---0---0---0--------- 
- -5-5---5---5---5-4-4---4---4---4-4-4---4---4---4---4---4-5-5-5-5- 
- ---------------------------------5-5---5---5---5---5---5-2-2-2-2- 
- ----------------------------------------------------------------- 
PM                                                           ..... 


- --------------------------------------------------------------------- 
- -------------------------------------------8-------------8--8--8--8-- 
- -------2---------4---2-----2-----------11------11--------11-11-11-11- 
- ---5-------5-------5---5-------5---9---------------9-----9--9--9--9-- 
- -3-------------3----------------------------------------------------- 
- ---------------------------------0---------------------0------------- 
PM ...           .   ...           ........              .    ........  
- -------------------------------------------7-------------7--7--7--7-- 
- -8-8---8---8---8-7-7---7---7---7-------10------10--------10-10-10-10- 
- -0-0---0---0---0-0-0---0---0---0---7---------------7-----7--7--7--7-- 
- -5-5---5---5---5-4-4---4---4---4------------------------------------- 
- --------------------------------------------------------------------- 
- ---------------------------------0---------------------0------------- 
PM                                 ........              .    ........ 


- ----------------------------------------------------------------------------------- 
- ----------------------------------------------------------------------------------- 
- -----------0---------------0--------0-----0-------------0-------------------------- 
- ----5------4--------5------4--------4-----4---------4-------4----------5--5--5--5-- 
- -3------3--3--3--3------3--3--3--3--3--3--3-----7---------------7------2--2--2--2-- 
- ---------------------------------------------5----------------------5-------------- 
PM .      .     ....      .     ....     .     ........               .     ....... 
- -----------14--------------14-------14----14------------10-------------10---------- 
- ----10-----10-------10-----10-------10----10----8-----------8----------12-12-12-12- 
- -12-----12-12-12-12-----12-12-12-12-12-12-12-11-----11----------11--11-11-9--9--9-- 
- ----------------------------------------------------------------------------------- 
- ----------------------------------------------------------------------------------- 
- ----------------------------------------------------------------------------------- 
PM ..     ..    .....     ..    .....    ..    ..     ..              ..    ........ 


- ----------------------------------------------------------------------------------- 
- ----------------------------------------------------8-----------8------------------ 
- -----------0---------------0--------0-----0------11---11---11---11----------------- 
- ----5------4--------5------4--------4-----4----9---------9------9------------------ 
- -3------3--3--3--3------3--3--3--3--3--3--3---------------------------------------- 
- ---------------------------------------------0----------------00------------------- 
PM .      .     ....      .     ....     .     ......           .. 
- -----------14--------------14-------14----14--------7-----------7------------------ 
- ----10-----10-------10-----10-------10----10-----10---10---10---10----------------- 
- -12-----12-12-12-12-----12-12-12-12-12-12-12---7---------7------7------------------ 
- ----------------------------------------------------------------------------------- 
- ----------------------------------------------------------------------------------- 
- ---------------------------------------------0----------------00------------------- 
PM ..     ..    .....     ..    .....    ..    ......           .. 


Riff 4b - 00:49 - 00:50 
- --------------------------------- 
- -------------8------------------- 
- -11------------------------------ 
- -------12------------------------ 
- --------------------------------- 
- --------------------------------- 


Riff 5, Guitar 1 & 2 - 00:50 - 01:19 
- ----------------------------------------------------------------- 
- ----------------------------------------------------------------- 
- ----------------------------------------------------------------- 
- ----------------------------------------------------------------- 
- -2---2-2-2-2-----2-2-2-2-----2-2-2---2-2-2-2-----2-2-2-2-----2--- 
- -3p0-0-0-0-0-----0-0-0-0-----3-3-3p0-0-0-0-0-----0-0-0-0-----0--- 
PM     ...................             ........................... 
- ---------15------------------------------------------------------ 
- ---------------------19------------------------------------------ 
- ---------------------------------16----------14----------\12----- 
- ----------------------------------------------------------------- 
- ----------------------------------------------------------------- 
- ----------------------------------------------------------------- 


- ----------------------------------------------------------------- 
- ----------------------------------------------------------------- 
- -------------------------------------------------4-4-4----------- 
- ---------------------------------------2-2-2-5-5-------4-4-4-5-5- 
- -2---2-2-2-2-----2-2-2-2---------2-2-2--------------------------- 
- -3p0-0-0-0-0-----0-0-0-0-----0-0--------------------------------- 
PM     ...........................................       ..... 
- ----------------------------------------------------------------- 
- ----------------------------------------------------------------- 
- ---------16br------------------------------------12---\11-------- 
- ----------------------------------------------------------------- 
- -------------------------------------------------------------12-- 
- ----------------------------------------------------------------- 


- ----------------------------------------------------------------- 
- ----------------------------------------------------------------- 
- -2---------------------------0-0-0-0----------------------------- 
- -5-5-5-5-5-5-----5-5-5-5-----4-4-4-4-5-5-5-5-----5-5-5-5-----5--- 
- -3-3-3-3-3-3-----3-3-3-3-----3-3-3-3-3-3-3-3-----3-3-3-3-----3--- 
- ----------------------------------------------------------------- 
PM   .....................             ........................... 
- ----------------------------------------------------------------- 
- ----------------------------------------------------------------- 
- --------------------11b---------------------------------------- 
- ----------------------------------------------------------------- 
- --------\10------------------------------------------------------ 
- ----------------------------------------------------------------- 


- ----------------------------------------------------------------- 
- ----------------------------------------------------------------- 
- -0---------------------------0-0-0-0----------------------------- 
- -4-2-2-2-2-2-----2-2-2-2-----4-4-4-4-2-2-2-2-----2-2-2-5-5-5-4-4- 
- -0-0-0-0-0-0-----0-0-0-0-----0-0-0-0-0-0-0-0--------------------- 
- ----------------------------------------------------------------- 
PM   .....................             ................. 
- ---------------------------------------------15--19----15-------- 
- ---------------------------------15----19--------------------19-- 
- -11-------------------------------------------------------------- 
- ----------------------------------------------------------------- 
- ----------------------------------------------------------------- 
- ----------------------------------------------------------------- 


- ----------------------------------------------------------------- 
- ----------------------------------------------------------------- 
- ----------------------------------------------------------------- 
- ----------------------------------------------------------------- 
- -2---2-2-2-2-----2-2-2-2-----2-2-2---2-2-2-2-----2-2-2-2-----2--- 
- -3p0-0-0-0-0-----0-0-0-0-----3-3-3p0-0-0-0-0-----0-0-0-0-----0--- 
PM     ...................             ........................... 
- ---------15------------------------------------------------------ 
- -17--------------19---------------------------------------------- 
- -----------------------------16----------14---------\12---------- 
- ----------------------------------------------------------------- 
- ----------------------------------------------------------------- 
- ----------------------------------------------------------------- 


- ----------------------------------------------------------------- 
- ----------------------------------------------------------------- 
- -------------------------------------------------4-4-4----------- 
- ---------------------------------------2-2-2-5-5-------4-4-4-5-5- 
- -2---2-2-2-2-----2-2-2-2---------2-2-2--------------------------- 
- -3p0-0-0-0-0-----0-0-0-0-----0-0--------------------------------- 
PM     ...........................................       ..... 
- ----------------------------------------------------------------- 
- ----------------------------------------------------------------- 
- -16br--------------------------------------------12---\11-------- 
- ----------------------------------------------------------------- 
- -------------------------------------------------------------12-- 
- ----------------------------------------------------------------- 


- ----------------------------------------------------------------- 
- ----------------------------------------------------------------- 
- -2---------------------------0-0-0-0----------------------------- 
- -5-5-5-5-5-5-----5-5-5-5-----4-4-4-4-5-5-5-5-----5-5-5-5-----5--- 
- -3-3-3-3-3-3-----3-3-3-3-----3-3-3-3-3-3-3-3-----3-3-3-3-----3--- 
- ----------------------------------------------------------------- 
PM   .....................             ........................... 
- ----------------------------------------------------------------- 
- ----------------------------------------------------------------- 
- --------------------11b---------------------------------------- 
- ----------------------------------------------------------------- 
- --------\10------------------------------------------------------ 
- ----------------------------------------------------------------- 


- ----------------------------------------------------------------- 
- ----------------------------------------------------------------- 
- -0---------------------------0-0-0-0----------------------------- 
- -4-2-2-2-2-2-----2-2-2-2-----4-4-4-4-2-2-2-2-----2-2-2-5-5-5-4-4- 
- -0-0-0-0-0-0-----0-0-0-0-----0-0-0-0-0-0-0-0--------------------- 
- ----------------------------------------------------------------- 
PM   .....................             ................. 
- ---------------------------------------------15--19----15-------- 
- ---------------------------------15----19--------------------19-- 
- -11-------------------------------------------------------------- 
- ----------------------------------------------------------------- 
- ----------------------------------------------------------------- 
- ----------------------------------------------------------------- 


Riff 6, Guitar 1 & 2 - 01:19 - 01:39 
- --------------------------------------------------------------0-- 
- -------------------------3------------------------------------0-- 
- -0-------------------------0---0-0-0---0-0-0------------------0-- 
- -4-----------------5/7-------4---4-4---4-4-4-x-x-9-----12\------- 
- -2-2-2-2-2-2-2-2-2-3/5-5---------2-2---2-2-2-x-x-7-777-10\555---- 
- -0-0-0-0-0-0-0-0-0-3/5-5---------0-0---0-0-0-x-x-7-777-10\555---- 
PM   ...............     .                           ...    ... 
- --------------------------------------------------------------0-- 
- -------------------------3------------------------------------0-- 
- ---------------------------0---0-0-0---0-0-0------------------0-- 
- -------------------5/7-4-----4---4-4---4-4-4-----9-----12\------- 
- -------------------3/5-----------2-2---2-2-2-----7-777-10\555---- 
- -------------------3/5-----------0-0---0-0-0-----7-777-10\555---- 
PM                                                   ...    ... 


- ---------------------------------------------------0------------- 
- ---------------------------3------\1-----------------0-----0----- 
- -4---------------------------0-------------------------0-----0--- 
- -5-------------------5/7-------4--\2---------------------------4- 
- -3---3-3-3-3-3-3-3-3-3/5-5-----------3-3-3-3-3-3-7-------5------- 
- -3---3-3-3-3-3-3-3-3-3/5-5-----------3-3-3-3-3-3-7-------5------- 
PM     ...............     .           .............       . 
- ---------------------------------------------------0------------- 
- ---------------------------3------\1-----------------0-----0----- 
- -4---------------------------0-------------------------0-----0--- 
- -5-------------------5/7-------4--\2---------------------------4- 
- -3---3-3-3-3-3-3-3-3-3/5-5-----------3-3-3-3-3-3-7-------5------- 
- -3---3-3-3-3-3-3-3-3-3/5-5-----------3-3-3-3-3-3-7-------5------- 
PM     ...............     .           .............       . 


- --------------------------------------------------------------- 
- ---------------------------3------\1--------------------------- 
- -----------------------------0--------------------------------- 
- -5-------------------5/7-------4--\2-------------5-x-x-x-5\4--- 
- -3-3-3-3-3-3-3-3-3-3-3/5-5-----------3-3-3-3-3-3-3-x-x-x-3\2-2- 
- -3-3-3-3-3-3-3-3-3-3-3/5-5-----------3-3-3-3-3-3-3-x-x-x-3\2-2- 
PM   .................     .           ............            . 
- --------------------------------------------------------------- 
- ---------------------------3------\1--------------------------- 
- -----------------------------0--------------------------------- 
- -5-------------------5/7-------4--\2-------------5-------5\4--- 
- -3-3-3-3-3-3-3-3-3-3-3/5-5-----------3-3-3-3-3-3-3-------3\2-2- 
- -3-3-3-3-3-3-3-3-3-3-3/5-5-----------3-3-3-3-3-3-3-------3\2-2- 
PM   .................     .           ............            . 


Riff 7, Guitar 1 & 2 - 01:39 - 02:08 
- ----------------------------------------------------------------- 
- -------0--------------------------------------------------------- 
- -4---5-5-------------------4-3---4---3-3-----------3------------- 
- -2---2---------------------2-2---2---2-2-----------2------------- 
- -2---3---2-2-2-2-2-0-2-3-0-2-1-1-2---1-1-1-1-1-1-1-1-1-1-1-2v-- 
- -0---0---0-0-0-0-0-0-2-3-0-0-0-0-0---0-0-0-0-0-0-0-0-0-0-0------- 
PM         .................     .         .........   ..... 
- ----------------------------------------------------------------- 
- -------0--------------------------------------------------------- 
- -4---5-5-------------------4-3---4---3-3-----------3-------3v-- 
- -2---2---------------------2-2---2---2-2-----------2------------- 
- -2---3---2-2-2-2-2-0-2-3-0-2-1-1-2---1-1-1-1-1-1-1-1-1-1-1------- 
- -0---0---0-0-0-0-0-0-2-3-0-0-0-0-0---0-0-0-0-0-0-0-0-0-0-0------- 
PM         .................     .         .........   ..... 


- ------------------------------------------------------------------- 
- -------0----------------------------------------------------------- 
- -4---5-5-------------------4-3---4---3-3-------------3-3---4-5----- 
- -2---2---------------------2-2---2---2-2-------------2-2---2-2----- 
- -2---3---2-2-2-2-2-0-2-3-0-2-1-1-2---1-1-1-1-1-1-1-1-1-1-1-2-3----- 
- -0---0---0-0-0-0-0-0-2-3-0-0-0-0-0---0-0-0-0-0-0-0-0-0-0-0-0-0----- 
PM         .................     .         ...........     . 
- ------------------------------------------------------------------- 
- -------0----------------------------------------------------------- 
- -4---5-5-------------------4-3---4---3-3-------------3-3---4-5----- 
- -2---2---------------------2-2---2---2-2-------------2-2---2-2----- 
- -2---3---2-2-2-2-2-0-2-3-0-2-1-1-2---1-1-1-1-1-1-1-1-1-1-1-2-3----- 
- -0---0---0-0-0-0-0-0-2-3-0-0-0-0-0---0-0-0-0-0-0-0-0-0-0-0-0-0----- 
PM         .................     .         ...........     . 


- ----------------------------------------------------------------- 
- ----------------------------------------------------------------- 
- -4-4-4---4-4-4-4-4-4-4---4-5-5---3-3-3---3-3-3-3----------------- 
- -2-2-2---2-2-2-2-2-2-2---2-2-2---2-2-2---2-2-2-2---------9-8----- 
- -2-2-2---2-2-2-2-2-2-2---2-3-3---1-1-1---1-1-1-1-0-2-3-0-7-6----- 
- -0-0-0---0-0-0-0-0-0-0---0-0-0---0-0-0---0-0-0-0-0-2-3-0-7-6----- 
PM                                                 ....... 
- ----------------------------------------------------------------- 
- ----------------------------------------------------------------- 
- -4-4-4---4-4-4-4-4-4-4---4-5-5---3-3-3---3-3-3-3----------------- 
- -2-2-2---2-2-2-2-2-2-2---2-2-2---2-2-2---2-2-2-2---------9-8----- 
- -2-2-2---2-2-2-2-2-2-2---2-3-3---1-1-1---1-1-1-1-0-2-3-0-7-6----- 
- -0-0-0---0-0-0-0-0-0-0---0-0-0---0-0-0---0-0-0-0-0-2-3-0-7-6----- 
PM                                                 ....... 


- ----------------------------------------------------------------- 
- ----------------------------------------------------------------- 
- -4-4-4---4-4-4-4-4-4-4---4-5-5---3-3-3---3-3-3-3----------------- 
- -2-2-2---2-2-2-2-2-2-2---2-2-2---2-2-2---2-2-2-2----------------- 
- -2-2-2---2-2-2-2-2-2-2---2-3-3---1-1-1---1-1-1-1----------------- 
- -0-0-0---0-0-0-0-0-0-0---0-0-0---0-0-0---0-0-0-0----------------- 
- 
- ----------------------------------------------------------------- 
- ----------------------------------------------------------------- 
- -4-4-4---4-4-4-4-4-4-4---4-5-5---3-3-3---3-3-3-3----------------- 
- -2-2-2---2-2-2-2-2-2-2---2-2-2---2-2-2---2-2-2-2----------------- 
- -2-2-2---2-2-2-2-2-2-2---2-3-3---1-1-1---1-1-1-1----------------- 
- -0-0-0---0-0-0-0-0-0-0---0-0-0---0-0-0---0-0-0-0----------------- 


Riff 4b - 02:06 - 02:08 
Riff 5, Guitar 1 & 2 - 02:08 - 02:36 


Riff 8, Guitar 1 & 2 - 02:36 - 02:40 
- -14----------14--14------14-14------------------------------------ 
- -10----------10--10------10-10------------------------------------ 
- -12----------12--12------12-12------------------------------------ 
- -10----------10--10------10-10----9\------------------------------ 
- ----------------------------------7\------------------------------ 
- ---0-0-0-0-0---0---0-0-0------0-0-7\------------------------------ 
PM   .........   .   .....      ... 
- ------------------------------------------------------------------ 
- ------------------------------------------------------------------ 
- -0-----------0---0-------0--0------------------------------------- 
- -4-----------4---4-------4--4-----9\------------------------------ 
- -2-----------2---2-------2--2-----7\------------------------------ 
- -0-0-0-0-0-0-0-0-0-0-0-0-0--0-0-0-7\------------------------------ 
PM   .........   .   .....      ... 


Symbols 

PM... Palm Mute notes with (...) under them 
AP... Alternate Pick notes with (...) under them 
h     Hammer On 
p     Pull Off 
    Harmonic 
/     Slide Up 
\     Slide Down 
x     Dead Note 
b     Bend 
hb    Hold Bend 
pb    Pre-Bend 
r     Release Bend 
(x )  Play Notes x amount of times 
~     Let Ring 
\\\   Pick Slide Down 
///   Pick Slide Up 
/ 3 \ Notes are triplets (3 notes in the space of two) 
w\    Whammy Bar Down 
w/    Whammy Bar Up 
wh    Whammy Bar Hold 
T     Right Hand Tap 
L     Left Hand Tap 

:) 
  

top 5 | counterparts
top rock'n roll
Outras músicas do artista letras do(a) Counterparts
Top cifras »Top artistas »
Petaxxon Comunicação Online
Cifras.com.br - Melhor e mais completo site de cifras e tablaturas do Brasil
Mais de 1 milhão de acordes de músicas cadastradas desde 2003
As informações contidas no nosso site são colaborações de seus usuários e podem conter erros, sendo assim, não nos responsabilizamos sobre nenhuma destas.
close
menos
mais
close
Cor dos acordes:

Cor da letra:

 

save
close
close
 
redimensionar