Cifras e Tablaturas
Counterparts

Counterparts

Resonate

Cifras Cancelar Versão de Impressão
cifras

Counterparts - Resonate

fixar na tela  
Exibindo: vídeo-aula ver clipes redimensionar
  
Riff 1, Guitar 1 & 2 - 00:00 - 00:04 
- ----------------------------------------------------------------- 
- ----------------------------------------------------------------- 
- -0-----------------------------------------------0-0---0---0-0-0- 
- -4-------------------------------4---------------4-4---4---4-4-4- 
- -2-------------------------------2---------------2-2---2---2-2-2- 
- ---------------------------------3------------------------------- 
- 
- -------------------------------------------------0--------------- 
- -------------------------------------------------0--------------- 
- -------------------------------------------------0--------------- 
- -4-------------------------------4------------------------------- 
- -2-------------------------------2------------------------------- 
- ---------------------------------3------------------------------- 


Riff 2, Guitar 1 & 2 0 00:04 - 00:20 - x2 
- ----------------------------------------------------------------- 
- ----------------------------------------------------------------- 
- -4-4---4---4-4-4-4-4---4---4-4-4-4-4---4---4-4-4-2-2---2---2-2-2- 
- -4-4---4---4-4-4-4-4---4---4-4-4-4-4---4---4-4-4-4-4---4---4-4-4- 
- -2-2---2---2-2-2-2-2---2---2-2-2-2-2---2---2-2-2-0-0---0---0-0-0- 
- ----------------------------------------------------------------- 
- 
- ----------------------------------------------------------------- 
- ----------------------------------------------------------------- 
- -------0---------------0---------------0---------------0--------- 
- ---4---------------4---------------4---------------2------------- 
- -2-------------2-2-------------2-2---------------0--------------- 
- ----------------------------------------------------------------- 


- ----------------------------------------------------------------- 
- ---------------------------------------------------3------------- 
- -------------------------------------------------------0--------- 
- -5-5---5---5-5-5-5-5---5---5-5-5-2-2---2---2-2-2-----------4----- 
- -5-5---5---5-5-5-5-5---5---5-5-5-2-2---2---2-2-2----------------- 
- -3-3---3---3-3-3-3-3---3---3-3-3-0-0---0---0-0-0-0--------------- 
PM                                                 . 
- ----------------------------------------------------------------- 
- ---------------------------------------------------7--------\---- 
- -------0---------------0---------------0---------------4----\---- 
- ---4---------------4---------------4-----------------------7\---- 
- ----------------------------------------------------------------- 
- -3-------------3-3---------------0---------------0--------------- 
PM                                                 . 


Riff 3, Guitar 1 & 2 - 00:20 - 00:40 
- ----------------------------------------------------------------- 
- ----------------------------------------------------------------- 
- -0---0-------------------------------0---------------0----------- 
- -4---4---4-4-4-4-4-4-4-4-4-4-4-4-4-4-4---4-4-4-4-4-4-4---4-4-4-4- 
- -2---2---2-2-2-2-2-2-2-2-2-2-2-2-2-2-2---2-2-2-2-2-2-2---2-2-2-2- 
- ----------------------------------------------------------------- 
PM         ...........................     ...........     ....... 
- ----------------------------------------------------------------- 
- ----------------------------------------------------------------- 
- -0---0----------------------------------------------------------- 
- -4---4----------------------------------------------------------- 
- -2---2----------------------------------------------------------- 
- ----------------------------------------------------------------- 


- ----------------------------------------------------------------- 
- ----------------------------------------------------------------- 
- -0---0----------------------------------------------------------- 
- -4---4---4-4-4-4-4-4-4-4-4-4-4-4-4------------------------------- 
- -2---2---2-2-2-2-2-2-2-2-2-2-2-2-2------------------------------- 
- ---------------------------------3------------------------------- 
PM         ....................... 
- ----------------------------------------------------------------- 
- ----------------------------------------------------------------- 
- -0---0----------------------------------------------------------- 
- -4---4---------------------------4------------------------------- 
- -2---2---------------------------2------------------------------- 
- ---------------------------------3------------------------------- 


- ----------------------------------------------------------------- 
- ----------------------------------------------------------------- 
- -0---0-------------------------------0---------------0----------- 
- -4---4---4-4-4-4-4-4-4-4-4-4-4-4-4-4-4---4-4-4-4-4-4-4---4-4-4-4- 
- -2---2---2-2-2-2-2-2-2-2-2-2-2-2-2-2-2---2-2-2-2-2-2-2---2-2-2-2- 
- ----------------------------------------------------------------- 
PM         ...........................     ...........     ....... 
- ----------------------------------------------------------------- 
- ----------------------------------------------------------------- 
- -0---0-------------------------------0---------------0----------- 
- -4---4---4-4-4-4-4-4-4-4-4-4-4-4-4-4-4---4-4-4-4-4-4-4---4-4-4-4- 
- -2---2---2-2-2-2-2-2-2-2-2-2-2-2-2-2-2---2-2-2-2-2-2-2---2-2-2-2- 
- ----------------------------------------------------------------- 


- ----------------------------------------------------------------- 
- ----------------------------------------------------------------- 
- -0---0-----0----------------------------------------------------- 
- -4---4-----4---------------------4------------------------------- 
- -2---2-----2---------------------2------------------------------- 
- -------------------------14\-----3------------------------------- 
- 
- ----------------------------------------------------------------- 
- ----------------------------------------------------------------- 
- -0---0-----0----------------------------------------------------- 
- -4---4-----4---------------------4------------------------------- 
- -2---2-----2---------------------2------------------------------- 
- -------------------------14\-----3------------------------------- 


- -5--------------------------------------------------------------- 
- -7-------------------------------7------------------------------- 
- -4-------------------------------7------------------------------- 
- ---------------------------------5------------------------------- 
- ----------------------------------------------------------------- 
- ----------------------------------------------------------------- 
- 
- ----------------------------------------------------------------- 
- ----------------------------------------------------------------- 
- -------------0---------------0---------------0---------------0--- 
- -------4---------------4---------------4---------------4--------- 
- ----------------------------------------------------------------- 
- -0---------------0---------------3---------------3--------------- 


Riff 4a - 00:40 - 00:56 
- ----------------------------------------------------------------- 
- ----------------------------------------------------------------- 
- -0---0-------------------------------0---------------0----------- 
- -4---4---4-4-4-4-4-4-4-4-4-4-4-4-4-4-4---4-4-4-4-4-4-4---4-4-4-4- 
- -2---2---2-2-2-2-2-2-2-2-2-2-2-2-2-2-2---2-2-2-2-2-2-2---2-2-2-2- 
- ----------------------------------------------------------------- 

- ----------------------------------------------------------------- 
- ----------------------------------------------------------------- 
- -0---0----------------------------------------------------------- 
- -4---4---4-4-4-4-4-4-4-4-4-4-4-4-4------------------------------- 
- -2---2---2-2-2-2-2-2-2-2-2-2-2-2-2------------------------------- 
- ---------------------------------3------------------------------- 
PM         ....................... 

- ----------------------------------------------------------------- 
- ----------------------------------------------------------------- 
- -0---0-------------------------------0---------------0----------- 
- -4---4---4-4-4-4-4-4-4-4-4-4-4-4-4-4-4---4-4-4-4-4-4-4---4-4-4-4- 
- -2---2---2-2-2-2-2-2-2-2-2-2-2-2-2-2-2---2-2-2-2-2-2-2---2-2-2-2- 
- ----------------------------------------------------------------- 
PM         ...........................     ...........     ....... 

- ----------------------------------------------------------------- 
- ----------------------------------------------------------------- 
- -0-0-----0---0--------------------------------------------------- 
- -4-4-----4---4-------------------4------------------------------- 
- -----2-2-2---2-------------------2------------------------------- 
- -------------------------14\-----3------------------------------- 

Riff 4b - 00:40 - 00:56 
- ----------------------------------------------------------------- 
- ----------------------------------------------------------------- 
- -6---6-------------------------------6---------------6----------- 
- -9---9---9-9-9-9-9-9-9-9-9-9-9-9-9-9-9---9-9-9-9-9-9-9---9-9-9-9- 
- -5---5---5-5-5-5-5-5-5-5-5-5-5-5-5-5-5---5-5-5-5-5-5-5---5-5-5-5- 
- ----------------------------------------------------------------- 
PM         ...........................     ...........     ....... 

- --------------------------------------------------------------------- 
- --------------------------------------------------------------------- 
- -6---6--------------------------/11---------------------------------- 
- -9---9---9-9-9-9-9-9-9-9-9-9-9-9-x-------------------12-12----------- 
- -5---5---5-5-5-5-5-5-5-5-5-5-5-5/9-------------------------10-10-9-9- 
- --------------------------------------------------------------------- 
PM         ....................... 

- -------------------------------------------------------------------- 
- -------------------------------------------------------------------- 
- -12\11--------------------------------12\11------------14\11-------- 
- -x--x---------------------------------x--x-------------x--x--------- 
- -10\9-9-9-9-9-9-9-9-9-9-9-9-9-9-9-9-9-10\9-9-9-9-9-9-9-12\9-9-9-9-9- 
- -------------------------------------------------------------------- 
PM      ...............................      ...........      ....... 

- --------------------------------------------------------------------- 
- --------------------------------------------------------------------- 
- -12\11-11-11-11---11------------------------------------------------- 
- -x--x--x--x--x----x------------------4------------------------------- 
- -10\9--9--9--9----9------------------2------------------------------- 
- -----------------------------14\-----3------------------------------- 


Riff 4, Guitar 1 & 2 - 00:56 - 01:26 
- ----------------------------------------------------------------- 
- ----------------------------------------------------------------- 
- -------------0-------------------------------0------------------- 
- -------4-------------------------------4------------------------- 
- ----------------------------------------------------------------- 
- -0-------------------------------3------------------------------- 
- 
- ----------------------------------------------------------------- 
- ---------------------------------------8------------------------- 
- -------------11-------------------------------------------------- 
- -------10------------------------------------5------------------- 
- -12------------------------------7------------------------------- 
- ----------------------------------------------------------------- 


- ----------------------------------------------------------------- 
- ----------------------------------------------------------------- 
- -------------0-------------------------------0------------------- 
- -------4-------------------------------4------------------------- 
- -2-------------------------------0------------------------------- 
- ---------------------------------------------------------2br----- 
- 
- ----------------------------------------------------------------- 
- ----------------------------------------------------------------- 
- -------7-------------------------------------7------------------- 
- /9-----------9-------------------------11--------11br------------ 
- ---------------------------------12------------------------------ 
- ----------------------------------------------------------------- 


- ----------------------------------------------------------------- 
- ----------------------------------------------------------------- 
- -------------0-------------------------------0------------------- 
- -------4-------------------------------4------------------------- 
- ----------------------------------------------------------------- 
- -3-------------------------------0------------------------------- 
- 
- ----------------------------------------------------------------- 
- ---------------------------------------8------------------------- 
- -------------11-------------------------------------------------- 
- -------10------------------------------------5------------------- 
- -12------------------------------7------------------------------- 
- ----------------------------------------------------------------- 


- ----------------------------------------------------------------- 
- ----------------------------------------------------------------- 
- ----------------------------------------------------------------- 
- ----------------------------------------------------------------- 
- -------5-------------------------------5------------------------- 
- /7-----------7-------------------9-----------9--/10\-----5------- 
- 
- ----------------------------------------------------------------- 
- -------------------------------------------------10-------------- 
- -------7-------------------------------7---------------7--------- 
- /9-----------9-------------------11----------11--------------11-- 
- ----------------------------------------------------------------- 
- ----------------------------------------------------------------- 


- ----------------------------------------------------------------- 
- ----------------------------------------------------------------- 
- -------------0-------------------------------0------------------- 
- -------4-------------------------------4------------------------- 
- ----------------------------------------------------------------- 
- -3-------------------------------0------------------------------- 
- 
- ----------------------------------------------------------------- 
- ---------------------------------------8------------------------- 
- -------------11-------------------------------------------------- 
- -------10------------------------------------9------------------- 
- -12------------------------------7------------------------------- 
- ----------------------------------------------------------------- 


- ----------------------------------------------------------------- 
- ----------------------------------------------------------------- 
- -------------0-------------------------------0------------------- 
- -------4-------------------------------4------------------------- 
- -2-------------------------------0------------------------------- 
- ---------------------------------------------------------2br----- 
- 
- ----------------------------------------------------------------- 
- -----------------7----------------------------------------------- 
- -------------7-------------------------------7------------------- 
- -9-------------------------------------11--------11br------------ 
- ---------------------------------12------------------------------ 
- -------7--------------------------------------------------------- 


- ------------------------------------------------------------------------------------------------- 
- ------------------------------------------------------------------------------------------------- 
- -------------0-------------------------------------------0-0-0-0--------------------------------- 
- -------4-------------------------------------------------4-4-4-4--------------------------------- 
- ---------------------------------------------2-----------2-2-2-2--------------------------------- 
- -3-------------------------------0--------------------------------------------------------------- 
- 
- ------------------------------------------------------------------------------------------------- 
- ---------------------------------------8--------------------------------------------------------- 
- -------------11---------------------------------------------------------------------------------- 
- -------10---------------------------------------------------------------------------------------- 
- -12------------------------------7--------------------------------------------------------------- 
- ---------------------------------------------7--------------------------------------------------- 


Riff 5, Guitar 1 & 2 - 01:26 - 01:42 
- ----------------------------------------------------------------- 
- ----------------------------------------------------------------- 
- -4-4---4---4-4-4-4-4---4---4-4-4-4-4---4---4-4-4-2-2---2---2-2-2- 
- -4-4---4---4-4-4-4-4---4---4-4-4-4-4---4---4-4-4-4-4---4---4-4-4- 
- -2-2---2---2-2-2-2-2---2---2-2-2-2-2---2---2-2-2-0-0---0---0-0-0- 
- ----------------------------------------------------------------- 
- 
- ----------------------------------------------------------------- 
- ----------------------------------------------------------------- 
- -------0---------------0---------------0---------------0--------- 
- ---4---------------4---------------4---------------2------------- 
- -2-------------2-2-------------2-2---------------0--------------- 
- ----------------------------------------------------------------- 


- ----------------------------------------------------------------- 
- ---------------------------------------------------3------------- 
- -------------------------------------------------------0--------- 
- -5-5---5---5-5-5-5-5---5---5-5-5-2-2---2---2-2-2-----------4----- 
- -5-5---5---5-5-5-5-5---5---5-5-5-2-2---2---2-2-2----------------- 
- -3-3---3---3-3-3-3-3---3---3-3-3-0-0---0---0-0-0-0--------------- 
PM                                                 . 
- ----------------------------------------------------------------- 
- ---------------------------------------------------7--------\---- 
- -------0---------------0---------------0---------------4----\---- 
- ---4---------------4---------------4-----------------------7\---- 
- ----------------------------------------------------------------- 
- -3-------------3-3---------------0---------------0--------------- 
PM                                                 . 


- ----------------------------------------------------------------- 
- ----------------------------------------------------------------- 
- -4-4---4---4-4-4-4-4---4---4-4-4-7-7---7---7-7-7-7-7---7---7-7-7- 
- -4-4---4---4-4-4-4-4---4---4-4-4-7-7---7---7-7-7-7-7---7---7-7-7- 
- -2-2---2---2-2-2-2-2---2---2-2-2-5-5---5---5-5-5-5-5---5---5-5-5- 
- ----------------------------------------------------------------- 
- 
- ----------------------------------------------------------------- 
- ----------------------------------------------------------------- 
- -------0---------------0---------------0---------------0--------- 
- ---4---------------4---------------4---------------2------------- 
- -2-------------2-2---------------5-------------5-5--------------- 
- ----------------------------------------------------------------- 


- ----------------------------------------------------------------- 
- ---------------------------------------------------3------------- 
- -------------------------------------------------------0--------- 
- -5-5---5---5-5-5-5-5---5---5-5-5-2-2---2---2-2-2-----------4----- 
- -5-5---5---5-5-5-5-5---5---5-5-5-2-2---2---2-2-2----------------- 
- -3-3---3---3-3-3-3-3---3---3-3-3-0-0---0---0-0-0-0--------------- 
PM                                                 . 
- ----------------------------------------------------------------- 
- ---------------------------------------------------7--------\---- 
- -------0---------------0---------------0---------------4----\---- 
- ---4---------------4---------------4-----------------------7\---- 
- ----------------------------------------------------------------- 
- -3-------------3-3---------------0---------------0--------------- 
PM                                                 . 


Riff 6a - 01:42 - 01:54 
- ----------------------------------------------------------------- 
- ----------------------------------------------------------------- 
- -------------0---------------0---------------0---------------0--- 
- -------4---------------4---------------4---------------4--------- 
- ----------------------------------------------------------------- 
- -3---------------3---------------0---------------0--------------- 

- ----------------------------------------------------------------- 
- ----------------------------------------------------------------- 
- -------------0---------------0---------------0------------------- 
- -------4---------------4---------------4-------------------4----- 
- -2---------------2---------------0---------------0-------0-4----- 
- -----------------------------------------------------------2----- 
PM                                                         . 

- ----------------------------------------------------------------- 
- ----------------------------------------------------------------- 
- -------------0---------------0---------------0------------------- 
- -------4---------------4---------------4------------------------- 
- ----------------------------------------------------------------- 
- -3---------------3---------------0------------------------------- 

Riff 6b - 01:42 - 01:54 
- -------------------------------------------------------------------------------------------- 
- -------------------------------------------------------------------------------------------- 
- /12-12---12---12-12-12-12-12---12---12-12-12-11-11---11---11-11-11-11-11-11---11---11-11-11- 
- -x--x----x----x--x--x--x--x----x----x--x--x--x--x----x----x--x--x--x--x--x----x----x--x--x-- 
- /10-10---10---10-10-10-10-10---10---10-10-10-9--9----9----9--9--9--9--9--9----9----9--9--9-- 
- -------------------------------------------------------------------------------------------- 

- -------------------------------------------------------------------------------------------- 
- -------------------------------------------------------------------------------------------- 
- -16-16---16---16-16-16-16-16---16---16-16-16-14-14---14---14-14-14-14----14-x-11/----------- 
- -x--x----x----x--x--x--x--x----x----x--x--x--x--x----x----x--x--x--x-----x--x-x------------- 
- -14-14---14---14-14-14-14-14---14---14-14-14-12-12---12---12-12-12-12----12-x-9/------------ 
- -------------------------------------------------------------------------------------------- 

- -------------------------------------------------------------------------------------------- 
- -------------------------------------------------------------------------------------------- 
- /12-12---12---12-12-12-12-12---12---12-12-12-11-11---11---11-11-11-11-11-11b--11b--11b11b11b 
- -x--x----x----x--x--x--x--x----x----x--x--x--x--x----x----x--x--x--x--x--x----x----x--x--x-- 
- /10-10---10---10-10-10-10-10---10---10-10-10-9--9----9----9--9--9--9--9--9----9----9--9--9-- 
- -------------------------------------------------------------------------------------------- 


Riff 7, Guitar 1 & 2 - 01:54 - 02:02 
- ----------------------------------------------------------------- 
- ----------------------------------------------------------------- 
- -0---0-------------------------------0---------------0----------- 
- -4---4---4-4-4-4-4-4-4-4-4-4-4-4-4-4-4---4-4-4-4-4-4-4---4-4-4-4- 
- -2---2---2-2-2-2-2-2-2-2-2-2-2-2-2-2-2---2-2-2-2-2-2-2---2-2-2-2- 
- ----------------------------------------------------------------- 
- 
- ----------------------------------------------------------------- 
- ----------------------------------------------------------------- 
- -6---6-------------------------------6---------------6----------- 
- -9---9---9-9-9-9-9-9-9-9-9-9-9-9-9-9-9---9-9-9-9-9-9-9---9-9-9-9- 
- -5---5---5-5-5-5-5-5-5-5-5-5-5-5-5-5-5---5-5-5-5-5-5-5---5-5-5-5- 
- ----------------------------------------------------------------- 
PM         ...........................     ...........     ....... 


- -------------------------------------------------------------0--- 
- -------------------------------------------------------------0--- 
- -0---0--------------------------/11----------------------11------ 
- -4---4---4-4-4-4-4-4-4-4-4-4-4-4-x-----------------------x------- 
- -2---2---2-2-2-2-2-2-2-2-2-2-2-2/9-----------------------9------- 
- ----------------------------------------------------------------- 
PM         ....................... 
- ----------------------------------------------------------------- 
- ----------------------------------------------------------------- 
- -6---6----------------------------------------------------------- 
- -9---9---9-9-9-9-9-9-9-9-9-9-9-9-4------------------------------- 
- -5---5---5-5-5-5-5-5-5-5-5-5-5-5-2------------------------------- 
- ---------------------------------3------------------------------- 
PM         ....................... 


Riff 8, Guitar 1 & 2 - 02:02 - 02:10 
- -----------------0-------------------------------10-------------- 
- -----------------0-------------------------------------9--------- 
- -6-----------------------------------------------------------11-- 
- -0--------------------------------------------------------------- 
- -4--------------------------------------------------------------- 
- ----------------------------------------------------------------- 
- 
- -------------------------------------------------0--------------- 
- -------------------------------------------------------0--------- 
- ----------------------------------------------------------------- 
- -4-----------------------------------------------------------4--- 
- -2--------------------------------------------------------------- 
- -3--------------------------------------------------------------- 


- ----------------------------------------------------------------- 
- -----------------------5----/7----------------------------------- 
- -----------------7---------------6------------------------------- 
- ----------------------------------------------------------------- 
- ----------------------------------------------------------------- 
- ----------------------------------------------------------------- 
- 
- ----------------------------------------------------------------- 
- ----------------------------------------------------------------- 
- ----------------------------------------------------------------- 
- ----------------------------------------------------------------- 
- ----------------------------------------------------------------- 
- ----------------------------------------------------------------- 


Riff 9, Guitar 1 & 2 - 02:10 - 02:27 
- -0--------------------------------------------------------------- 
- -0--------------------------------------------------------------- 
- -4-------4-4---4-4-------------------4-4-------------4-4---4----- 
- -5-------5-5---5-5-------------------5-5-------------5-5---5----- 
- -3-------3-3---3-3-------------------3-3-------------3-3---3----- 
- ----------------------------------------------------------------- 
PM         ....................................................... 
- -0--------------------------------------------------------------- 
- -0--------------------------------------------------------------- 
- -4-------4-4---4-4-------------------4-4-------------4-4---4----- 
- -5-------5-5---5-5-------------------5-5-------------5-5---5----- 
- -3-------3-3---3-3-------------------3-3-------------3-3---3----- 
- ----------------------------------------------------------------- 
PM         ....................................................... 


- -0--------------------------------------------------------------- 
- -0--------------------------------------------------------------- 
- -4-------4-4---4-4-------------------4-4---4---------4-4--------- 
- -5-------5-5---5-5-------------------5-5---5---------5-5--------- 
- -3-------3-3---3-3-------------------3-3---3---------3-3--------- 
- ----------------------------------------------------------------- 
PM         ....................................................... 
- -0--------------------------------------------------------------- 
- -0--------------------------------------------------------------- 
- -4-------4-4---4-4-------------------4-4---4---------4-4--------- 
- -5-------5-5---5-5-------------------5-5---5---------5-5--------- 
- -3-------3-3---3-3-------------------3-3---3---------3-3--------- 
- ----------------------------------------------------------------- 
PM         ....................................................... 


- -0--------------------------------------------------------------- 
- -0--------------------------------------------------------------- 
- -4-------4-4---4-4-------4-4---4-4---4-4-------------4-4---4----- 
- -5-------5-5---5-5-------5-5---5-5---5-5-------------5-5---5----- 
- -3-------3-3---3-3-------3-3---3-3---3-3-------------3-3---3----- 
- ----------------------------------------------------------------- 
PM         ....................................................... 
- -0--------------------------------------------------------------- 
- -0--------------------------------------------------------------- 
- -4-------4-4---4-4-------------------4-4-------------4-4---4----- 
- -5-------5-5---5-5-------------------5-5-------------5-5---5----- 
- -3-------3-3---3-3-------------------3-3-------------3-3---3----- 
- ----------------------------------------------------------------- 
PM         ....................................................... 


- -0--------------------------------------------------------------- 
- -0-------------------------------------------------------/--3--\- 
- -4-------4-4---4-4---4-4---4-4---4-4---4-4---4-4---4-4---4--4--4- 
- -5-------5-5---5-5---5-5---5-5---5-5---5-5---5-5---5-5---5--5--5- 
- -3-------3-3---3-3---3-3---3-3---3-3---3-3---3-3---3-3---3--3--3- 
- ----------------------------------------------------------------- 
PM         ....................................................... 
- -0--------------------------------------------------------------- 
- -0-------------------------------------------------------/--3--\- 
- -4-------4-4---4-4---4-4---4-4---4-4---4-4---4-4---4-4---4--4--4- 
- -5-------5-5---5-5---5-5---5-5---5-5---5-5---5-5---5-5---5--5--5- 
- -3-------3-3---3-3---3-3---3-3---3-3---3-3---3-3---3-3---3--3--3- 
- ----------------------------------------------------------------- 
PM         ....................................................... 


Riff 10, Guitar 1 & 2 - 02:27 - 03:10 
- ----------------------------------------------------------------- 
- ----------------------------------------------------------------- 
- -------------0---------------0---------------0------------------- 
- -------4---------------4---------------4------------------------- 
- ----------------------------------------------------------------- 
- -0---------------0---------------3------------------------------- 
- 
- ----------------------------------------------------------------- 
- ----------------------------------------------------------------- 
- ----------------------------------------------------------------- 
- ----------------------------------------------------------------- 
- ----------------------------------------------------------------- 
- ----------------------------------------------------------------- 


- ----------------------------------------------------------------- 
- ----------------------------------------------------------------- 
- -------------0-------------------------------0------------------- 
- -------4-------------------------------4------------------------- 
- -2-------------------------------0------------------------------- 
- ---------------------------------------------------------2br----- 
- 
- ----------------------------------------------------------------- 
- ----------------------------------------------------------------- 
- -------7-------------------------------------7------------------- 
- /9-----------9-------------------------11--------11br------------ 
- ---------------------------------12------------------------------ 
- ----------------------------------------------------------------- 


- ----------------------------------------------------------------- 
- ----------------------------------------------------------------- 
- -------------0-------------------------------0------------------- 
- -------4-------------------------------4------------------------- 
- ----------------------------------------------------------------- 
- -3-------------------------------0------------------------------- 
- 
- ----------------------------------------------------------------- 
- ---------------------------------------8------------------------- 
- -------------11-------------------------------------------------- 
- -------10------------------------------------5------------------- 
- -12------------------------------7------------------------------- 
- ----------------------------------------------------------------- 


- ----------------------------------------------------------------- 
- ----------------------------------------------------------------- 
- ----------------------------------------------------------------- 
- ----------------------------------------------------------------- 
- -------5-------------------------------5------------------------- 
- /7-----------7-------------------9-----------9--/10\-----5------- 
- 
- ----------------------------------------------------------------- 
- -------------------------------------------------10-------------- 
- -------7-------------------------------7---------------7--------- 
- /9-----------9-------------------11----------11--------------11-- 
- ----------------------------------------------------------------- 
- ----------------------------------------------------------------- 


- ----------------------------------------------------------------- 
- ----------------------------------------------------------------- 
- -------------0-------------------------------0------------------- 
- -------4-------------------------------4------------------------- 
- ----------------------------------------------------------------- 
- -3-------------------------------0------------------------------- 
- 
- ----------------------------------------------------------------- 
- ---------------------------------------8------------------------- 
- -------------11-------------------------------------------------- 
- -------10------------------------------------9------------------- 
- -12------------------------------7------------------------------- 
- ----------------------------------------------------------------- 


- ----------------------------------------------------------------- 
- ----------------------------------------------------------------- 
- -------------0-------------------------------0------------------- 
- -------4-------------------------------4------------------------- 
- -2-------------------------------0------------------------------- 
- ---------------------------------------------------------2br----- 
- 
- ----------------------------------------------------------------- 
- -----------------7----------------------------------------------- 
- -------------7-------------------------------7------------------- 
- -9-------------------------------------11--------11br------------ 
- ---------------------------------12------------------------------ 
- -------7--------------------------------------------------------- 


- ----------------------------------------------------------------- 
- ----------------------------------------------------------------- 
- -------------0-------------------------------0------------------- 
- -------4-------------------------------4------------------------- 
- ----------------------------------------------------------------- 
- -3-------------------------------0------------------------------- 
- 
- ----------------------------------------------------------------- 
- ---------------------------------------8------------------------- 
- -------------11-------------------------------------------------- 
- -------10------------------------------------5------------------- 
- -12------------------------------7------------------------------- 
- ----------------------------------------------------------------- 


- ------------------------------------------------------------------------------------------------- 
- ------------------------------------------------------------------------------------------------- 
- ------------------------------------------------------------------------------------------------- 
- ------------------------------------------------------------------------------------------------- 
- -------5---------------5---------------5--------------------------------------------------------- 
- /7-----------7---7-----------7---9-----------9--/10\------------\5--------------\3--------------- 
- 
- ------------------------------------------------------------------------------------------------- 
- -------------------------------------------------10-------------\7---------------5--------------- 
- -------7---------------7---------------7--------------------------------------------------------- 
- /9-----------9---9-----------9---11----------11-------------------------------------------------- 
- ------------------------------------------------------------------------------------------------- 
- ------------------------------------------------------------------------------------------------- 


Symbols 

PM... Palm Mute notes with (...) under them 
AP... Alternate Pick notes with (...) under them 
h     Hammer On 
p     Pull Off 
    Harmonic 
/     Slide Up 
\     Slide Down 
x     Dead Note 
b     Bend 
hb    Hold Bend 
pb    Pre-Bend 
r     Release Bend 
(x )  Play Notes x amount of times 
~     Let Ring 
\\\   Pick Slide Down 
///   Pick Slide Up 
/ 3 \ Notes are triplets (3 notes in the space of two) 
w\    Whammy Bar Down 
w/    Whammy Bar Up 
wh    Whammy Bar Hold 
T     Right Hand Tap 
L     Left Hand Tap 

:) 
  

top 5 | counterparts
top rock'n roll
Outras músicas do artista letras do(a) Counterparts
Top cifras »Top artistas »
Petaxxon Comunicação Online
Cifras.com.br - Melhor e mais completo site de cifras e tablaturas do Brasil
Mais de 1 milhão de acordes de músicas cadastradas desde 2003
As informações contidas no nosso site são colaborações de seus usuários e podem conter erros, sendo assim, não nos responsabilizamos sobre nenhuma destas.
close
menos
mais
close
Cor dos acordes:

Cor da letra:

 

save
close
close
 
redimensionar