Cifras e Tablaturas
Counterparts

Counterparts

Walk Away Slowly

Cifras Cancelar Versão de Impressão
cifras

Counterparts - Walk Away Slowly

fixar na tela  
Exibindo: vídeo-aula ver clipes redimensionar
  
Tuning: D G C F A D 


Riff 1, Guitar 1 & 2 - 00:06 - 00:31 
- ------------------------------------------------------------------------- 
- -------15----15----------15----15----------15----15----------15----15---- 
- ----12----12----12----12----12----12----12----12----12----12----12----12- 
- -16----------------16----------------16----------------16---------------- 
- ------------------------------------------------------------------------- 
- ------------------------------------------------------------------------- 
- 
- ------------------------------------------------------------------------- 
- -5~---------------------------------------------------------------------- 
- -4~---------------------------------------------------------------------- 
- -2~---------------------------------------------------------------------- 
- ------------------------------------------------------------------------- 
- ------------------------------------------------------------------------- 


- -------14----14----------14----14----------14----14----------14----14---- 
- ------------------------------------------------------------------------- 
- ----14----14----14----14----14----14----14----14----14----14----14----14- 
- -17----------------17----------------17----------------17---------------- 
- ------------------------------------------------------------------------- 
- ------------------------------------------------------------------------- 
- 
- ------------------------------------------------------------------------- 
- -1~---------------------------------------------------------------------- 
- -4~---------------------------------------------------------------------- 
- -2~---------------------------------------------------------------------- 
- -3~---------------------------------------------------------------------- 
- ------------------------------------------------------------------------- 


- ------------------------------------------------------------------------- 
- -------15----15----------15----15----------15----15----------15----15---- 
- ----12----12----12----12----12----12----12----12----12----12----12----12- 
- -16----------------16----------------16----------------16---------------- 
- ------------------------------------------------------------------------- 
- ------------------------------------------------------------------------- 
- 
- ------------------------------------------------------------------------- 
- -5~---------------------------------------------------------------------- 
- -0~---------------------------------------------------------------------- 
- -4~---------------------------------------------------------------------- 
- -3~---------------------------------------------------------------------- 
- ------------------------------------------------------------------------- 


- ----14-------14-------14-------14----15---------------------------------- 
- -------------------------------------17---------------------------------- 
- -------16-------16-------16-------16------------------------------------- 
- -14-------14-------14-------14------------------------------------------- 
- ------------------------------------------------------------------------- 
- ------------------------------------------------------------------------- 
- 
- ------------------------------------------------------------------------- 
- -5~---------------------------------------------------------------------- 
- -4~---------------------------------------------------------------------- 
- -2~---------------------------------------------------------------------- 
- -2~---------------------------------------------------------------------- 
- -0~---------------------------------------------------------------------- 
 
  

cifra enviadasem correções
enviado porenviada por:ubirbomfim
top 5 | counterparts
top rock'n roll
Outras músicas do artista letras do(a) Counterparts
Top cifras »Top artistas »
Petaxxon Comunicação Online
Cifras.com.br - Melhor e mais completo site de cifras e tablaturas do Brasil
Mais de 1 milhão de acordes de músicas cadastradas desde 2003
As informações contidas no nosso site são colaborações de seus usuários e podem conter erros, sendo assim, não nos responsabilizamos sobre nenhuma destas.
close
menos
mais
close
Cor dos acordes:

Cor da letra:

 

save
close
close
 
redimensionar