Cifras e Tablaturas
CPM 22

CPM 22

Desconfio - Solo

Ano: 2002
Album : Mtv Ao Vivo

Cifras Cancelar Versão de Impressão

CPM 22 - Desconfio - Solo

Tom:

  			Repete algumas veses esses sòlo: 
E------------------------------------------------------- 
B-7-7-6-6ph7-6------------------------------------------ 
G--------------7-9-7-5-7-5------------------------------ 
D------------------------------------------------------- 
A------------------------------------------------------- 
E------------------------------------------------------- 
 
 E termina o sòlo com isso: 
 
B-7-7-6ph7----9-7-6-4--9-7-6-4--9-7-6-0----------------- 
G----------7-9------------------------------------------ 

    	
fixar
fixar inscrever-se

enviado porenviado por: Ney Simmons
cifra enviadaCorrigida por: sem correções
logo top cifrasComente
ico música do artistaMúsicas deste artista
ico curtiuCurtiu?
ico destaqueDestaque
Petaxxon Comunicação Online

Cifras.com.br - Melhor e mais completo site de cifras e tablaturas do Brasil Mais de 1 milhão de acordes de músicas cadastradas desde 2003
As informações contidas no nosso site são colaborações de seus usuários e podem conter erros, sendo assim, não nos responsabilizamos sobre nenhuma destas.

close
menos
mais
close
Cor dos acordes:

Cor da letra:

close
Alinhar acordes a direita Alinhar acordes a esquerda Alinhar acordes em baixo Alinhar acordes no topo
close
  Mostrar todos os acordes Esconder acordes muito fáceis Esconder acordes fáceis Esconder acordes intermediários
redimensionar
glossário