Cifras e Tablaturas
CPM 22

CPM 22

Irreversive

Ano: 2005
Album : Felicidade Instantânea

Cifras Cancelar Versão de Impressão Print

CPM 22 - Irreversive

Tom: A

  			ARTISTA : CPM22 
MUSICA : IRREVERSIVEL 
 
Introdução A, G, G# 
 
---------------------------------------- 
---------------------------------------- 
11-11-11-11-9-------------------------- (3X) 
 9--9--9--9--9------------------------- 
---------------------------------------- 
---------------------------------------- 
 
---------------------------------------- 
---------------------------------------- 
11--11--12-11--9--11------------------ 
-9---9--------------------------------- 
--------------------------------------- 
--------------------------------------- 
 
---------------------------------------- 
---------------------------------------- 
-9-9-11-11-9-9-11-11--9-9-11-11-12~~~~-  (2X) 
-9-9------- 9-9-------- 9-9--------9----- 
---------------------------------------- 
---------------------------------------- 
 
A         D                E D E D  
A vida me sorri então  
 A              E                   D 
Recolho os cacos que deixei no chão  
A                   D 
Milhares de recordações   
A                 E              D   E  
transformam tudo em canções  
E essa daqui é pra você!  
  
A              D              E 
se eu pudesse desfazer  
Tudo de errado entre nós  
A              D               E 
e apagar cada lembrança sua   
que ainda existe em mim  
A              D                  E 
Eu sei que nada que eu diga  
Vai trazer  
A              D                     E 
O longe pra mais perto de mim dessa vez  
A                    D                      E              
por que gostar de alguém vai ser sempre assim  
A     D      E                   (intro.) A, G, G# 
Irreversívellllll  
  
  
A         D                E D E D  
A vida ri de mim então  
       D                 E              D            A 
Percebo o quanto é triste te esperar em vão  
A                   D 
Mas acho forças pra cantar  
A                 E              D   E  
Quem sabe você possa me escutar  
Eu só queria te dizer!  
  
A              D              E 
se eu pudesse desfazer  
Tudo de errado entre nós  
A              D               E 
e apagar cada lembrança sua   
que ainda existe em mim  
A              D                  E 
Eu sei que nada que eu diga  
Vai trazer  
A              D                     E 
O longe pra mais perto de mim dessa vez  
A                    D                      E              
por que gostar de alguém vai ser sempre assim   
A      D        E                 
Irreversívellllll  
D 
A cada passo que eu dou pra frente  
E   
Sinto o meu corpo indo pra trás  
A   
e a cada hora que vivo sem sentido  
Parece me fazer te querer cada vez mais  
D  
Eu trago em mim apenas um sorriso  
E   
Braços abertos pra te receber  
A   
Mas acabo sempre triste e sozinho  
Procurando uma maneira de entender  
D  
Se é irreversível para mim  
E   
então é reversível pra você  
A   
se tudo tem que ser assim                                                               
então deixa ser.  
(Essa parte é feita nas oitavas) ouve a musica p/ vcs pegarem melhor essa batida) 
----------------------------------------------- 
----------------------------------------------- 
-7--7--7--9-9-9------------------------------- 
-------------------7--7--7--5--7-------------- 
-5--5--5--7-7-7------------------------------- 
-------------------5--5--5--5--5-------------- 
 
---------------------------------------------- 
---------------------------------------------- 
-7--7--7---9--9--9--11--11-11--14--14--14--- 
---------------------------------------------- 
-5--5--5---7--7--7--9---9---9---12--12--12-- 
---------------------------------------------- 
 
Mas só queria te dizer  
A              D              E 
se eu pudesse desfazer  
Tudo de errado entre nós  
A              D               E 
e apagar cada lembrança sua   
que ainda existe em mim  
A              D                  E 
Eu sei que nada que eu diga  
Vai trazer  
A              D                     E 
O longe pra mais perto de mim dessa vez  
A                    D                      E              
por que gostar de alguém vai ser sempre assim   
A      D        E                 
Irreversívellllll  
A             G          G#   (PASSAGEM RAPIDA) 
Irreversívellllll é só o fim 
A      G              G#      (PASSAGEM RAPIDA) 
Irreversívellllll é só o fim pra mim   
 
(Bom essa musika ela esta num tom acima da musica 
eu achei que a musika fica melhor p/ ser tokada aí 
qualquer coisa é so abaixar o tom das notas  
meu msn [email protected] or [email protected] 
Tamo aí) 
  
 

    	
fixar
fixar inscrever-se

enviado porenviado por: brunolpl
cifra enviadaCorrigida por: sem correções
logo top cifrasComente
ico música do artistaMúsicas deste artista
ico curtiuCurtiu?
ico destaqueDestaque
Petaxxon Comunicação Online

Cifras.com.br - Melhor e mais completo site de cifras e tablaturas do Brasil Mais de 1 milhão de acordes de músicas cadastradas desde 2003
As informações contidas no nosso site são colaborações de seus usuários e podem conter erros, sendo assim, não nos responsabilizamos sobre nenhuma destas.

close
menos
mais
close
Cor dos acordes:

Cor da letra:

close
Alinhar acordes a direita Alinhar acordes a esquerda Alinhar acordes em baixo Alinhar acordes no topo
close
  Mostrar todos os acordes Esconder acordes muito fáceis Esconder acordes fáceis Esconder acordes intermediários
redimensionar
glossário