Cifras e Tablaturas
CPM 22

CPM 22

Pensamentos Negativos

Ano: 2005
Album : Felicidade Instantânea

Cifras Cancelar Versão de Impressão

CPM 22 - Pensamentos Negativos

Tom: F

  			 e|------------------------------------------------------------|  
  B|------------------------------------------------------------|  
  G|------------------------------------------------------------|    
  D|----3-2-----------3--2--------------3-2---------3-2---------|  3x 
  A|--------3--------------3---------5------3-----5------3------|  
  D|--1-------------1-------------------------------------------|  
 
   F                                    D  
   Esta noite os meus pensamentos negativos 
   Não vão me matar 
   F 
   Não vou morrer por amor 
               D 
   Estou morando longe dos pensamentos que 
 
  Refão: 
 
  guitarra 2 faz: 
  e|------------------------------------------------------------|  
  B|------------------------------------------------------------|  
  G|------------------------------------------------------------|    
  D|-------3-2-----------3--2-----------------------------------|  2x 
  A|-----3------------3-------------3--2--3-------3--2--3-------|  
  D|--1-------------1------------------------3-------------3----|  
 
   F 
   Eu sempre quis esquecer     : 2x 
             C  G    C G       :   
   Me enfraqueceu              : 
 
  e|------------------------------------------------------------|  
  B|------------------------------------------------------------|  
  G|------------------------------------------------------------|    
  D|----3-2-----------3--5--------------3-2---------3-5---------|  
  A|--------3--------------3---------5------3-----5------3------|  
  D|--1-------------1-------------------------------------------|  
 
  e|------------------------------------------------------------|  
  B|------------------------------------------------------------|  
  G|------------------------------------------------------------|    
  D|----3-2-----------3--2--------------3-2---------3-2---------|  3x 
  A|--------3--------------3---------5------3-----5------3------|  
  D|--1-------------1-------------------------------------------|  
  
   F                                      D 
   Me vejo triste por não conseguir ressuscitar 
   F                           D 
   A esperança que um dia habitou em você 
 
   Refrão: 
 
   guitarra 2 faz: 
  e|------------------------------------------------------------|  
  B|------------------------------------------------------------|  
  G|------------------------------------------------------------|    
  D|-------3-2-----------3--2-----------------------------------|  2x 
  A|-----3------------3-------------3--2--3-------3--2--3-------|  
  D|--1-------------1------------------------3-------------3----| 
   
                             F   
   É, eu sei que eu sempre quis esquecer  : 2x 
               C G   C G                  :    
   Me enfraqueceu                         :  
 
  (F-F-D|-D) 3x 
 
   final:  
  e|------------------------|  
  B|------------------------|  
  G|------------------------|    
  D|--3---------------------|   
  A|-----2-3----------------|  
  D|------------------------| 
 
   Refão: 
 
  guitarra 2 faz: 
  e|------------------------------------------------------------|  
  B|------------------------------------------------------------|  
  G|------------------------------------------------------------|    
  D|-------3-2-----------3--2-----------------------------------|  2x 
  A|-----3------------3-------------3--2--3-------3--2--3-------|  
  D|--1-------------1------------------------3-------------3----|  
 
   F 
   Eu sempre quis esquecer     :  2x 
             C  G    C G       :   
   Me enfraqueceu              : 
 
    Final: 
   (F-C-G) 2x  (F) 
 
    guitarra 2 faz: 
e|-------------------------------------------------------------------------------|     
B|-------------------------------------------------------------------------------|     
G|--10--10--10--10--9--5--10--10--10--10--9--7--7--7--9--9--9--7--7--5--7--7--5--| 2x    
D|-------------------------------------------------------------------------------|      
A|--8---8---8---8---7--3--8---8---8---8---7--5--5--5--7--7--7--5--5--3--5--5--3--|    
D|-------------------------------------------------------------------------------|     
 
                 -----| 
                 -----| 
 e termina com   --10-| 
                 -----| 
                 --8--| 
                 -----| 
 
 

    	
fixar
fixar inscrever-se

enviado porenviado por: eduardo_lyvio
cifra enviadaCorrigida por: sem correções
logo top cifrasComente
ico música do artistaMúsicas deste artista
ico curtiuCurtiu?
ico destaqueDestaque
Petaxxon Comunicação Online

Cifras.com.br - Melhor e mais completo site de cifras e tablaturas do Brasil Mais de 1 milhão de acordes de músicas cadastradas desde 2003
As informações contidas no nosso site são colaborações de seus usuários e podem conter erros, sendo assim, não nos responsabilizamos sobre nenhuma destas.

close
menos
mais
close
Cor dos acordes:

Cor da letra:

close
Alinhar acordes a direita Alinhar acordes a esquerda Alinhar acordes em baixo Alinhar acordes no topo
close
  Mostrar todos os acordes Esconder acordes muito fáceis Esconder acordes fáceis Esconder acordes intermediários
redimensionar
glossário