Cifras e Tablaturas
CPM 22

CPM 22

Peter (original)

Cifras Cancelar Versão de Impressão Print

CPM 22 - Peter (original)

Tom: C

  			CPM 22 - Peter 
Por: Paulo Yamashiro ([email protected]) 
Introdução (repete 2 vezes) 
E|---------------------------------------------------| 
B|---------------------------------------------------| 
G|-5-5-5-5-5-----------------------------------------| 
D|-5-5-5-5-5-5-5-5-5-5-2-2-2-2-2-3-3-3-3-3-5-5-5-5-5-| 
A|-3-3-3-3-3-5-5-5-5-5-2-2-2-2-2-3-3-3-3-3-5-5-5-5-5-| 
E|-----------3-3-3-3-3-0-0-0-0-0-1-1-1-1-1-3-3-3-3-3-| 
 |Guitarra 1 
E|---------------------------------------------------| 
B|-13----13----13----13----13----13----13-----13--15-| 
G|----12----12----12----12----12----12-----12--------| 
D|---------------------------------------------------| 
A|---------------------------------------------------| 
E|---------------------------------------------------| 
  Guitarra 2 
 
Verso 
E|------------------------------------------------------------------------------- 
B|------------------------------------------------------------------------------- 
G|-5-5-5-5-5-------------------------------5-5-5-5-5----------------------------- 
D|-5-5-5-5-5-5-5-5-5-5-3-3-3-3-3-5-5-5-5-5-5-5-5-5-5-5-5-5-5-5-3-3-3-3-3-5-5-5-5- 
A|-3-3-3-3-3-5-5-5-5-5-3-3-3-3-3-5-5-5-5-5-3-3-3-3-3-5-5-5-5-5-3-3-3-3-3-5-5-5-5- 
E|-----------3-3-3-3-3-1-1-1-1-1-3-3-3-3-3-----------3-3-3-3-3-1-1-1-1-1-3-3-3-3- 
 
  ------------------------------------------------------------| 
  ------------------------------------------------------------| 
  -5-5-5-5-------------------------5~-------------------------| 
  -5-5-5-5-2-2-2-2-3-3-3-3-5-5-5-5-5~------2~------3~------5~-| 
  -3-3-3-3-2-2-2-2-3-3-3-3-5-5-5-5-3~------2~------3~------5~-| 
  ---------0-0-0-0-1-1-1-1-3-3-3-3---------0~------1~------3~-| 
  ß---------palm mute-----------à 
Refrão 1 
E|----------------------------------------------------------------------------- 
B|----------------------------------------------------------------------------- 
G|-10-10-10-10-9-7-5-5-5-5-10-10-10-10-9-7-10-10-10-10-10-10-10-10-9-7-5-5-5-5- 
D|-10-10-10-10-9-7-5-5-5-5-10-10-10-10-9-7-10-10-10-10-10-10-10-10-9-7-5-5-5-5- 
A|-8--8--8--8--7-5-3-3-3-3-8--8--8--8--7-5-8--8--8--8--8--8--8--8--7-5-3-3-3-3- 
E|----------------------------------------------------------------------------- 
 
  -----------------------------------------------------------------------------| 
  -----------------------------------------------------------------------------| 
  -12-12-12-12-12-12-10-10-10-10-10-10-----12-12-12-12-12-12-10-10-10-10-10-10-| 
  -12-12-12-12-12-12-10-10-10-10-10-10-10~-12-12-12-12-12-12-10-10-10-10-10-10-| 
  -10-10-10-10-10-10-8--8--8--8--8--8--10~-10-10-10-10-10-10-8--8--8--8--8--8--|   
  -------------------------------------8-~-------------------------------------| 
 
Riff (repete 2 vezes) 
E|-------------------------------------------------------------------------- 
B|-------------------------------------------------------------------------- 
G|----------------10-10-10-10-10-9-9-9-9-9-12-12-12-12-12-12---------------- 
D|-10-10-10-10-10-10-10-10-10-10-9-9-9-9-9-12-12-12-12-12-12-10-10-10-10-10- 
A|-10-10-10-10-10-8--8--8--8--8--7-7-7-7-7-10-10-10-10-10-10-10-10-10-10-10- 
E|-8--8--8--8--8---------------------------------------------8--8--8--8--8-- 
 
  -------------------------| 
  -------------------------| 
  -10-10-10-10-10-12-12-12-| 
  -10-10-10-10-10-12-12-12-| 
  -8--8--8--8--8--10-10-10-| 
  -------------------------| 
Refrão 2 
E|----------------------------------------------------------------------------- 
B|----------------------------------------------------------------------------- 
G|-10-10-10-10-9-7-5-5-5-5-10-10-10-10-9-7-10-10-10-10-10-10-10-10-9-7-5-5-5-5- 
D|-10-10-10-10-9-7-5-5-5-5-10-10-10-10-9-7-10-10-10-10-10-10-10-10-9-7-5-5-5-5- 
A|-8--8--8--8--7-5-3-3-3-3-8--8--8--8--7-5-8--8--8--8--8--8--8--8--7-5-3-3-3-3- 
E|----------------------------------------------------------------------------- 
 
  -------------------------------------------------------------------------| 
  -------------------------------------------------------------------------| 
  -12-12-12-12-12-12-10-10-10-10-10-10-12-12-12-12-12-12-10-10-10-10-10-10-| 
  -12-12-12-12-12-12-10-10-10-10-10-10-12-12-12-12-12-12-10-10-10-10-10-10-| 
  -10-10-10-10-10-10-8--8--8--8--8--8--10-10-10-10-10-10-8--8--8--8--8--8--|   
  -------------------------------------------------------------------------| 
 
Final 
E|--------| 
B|--------| 
G|-5---5~-| 
D|-5-5-5~-| 
A|-3-5-3~-| 
E|---3----| 
 
Cifra 
 
C, G, E, F, G, C, G, E, F, G 
 
C                                          G 
O dia hoje está quente, vou curtir enquanto é tempo  
              F                                     G 
porque hoje é Domingo e eu vou aproveitar  
C                                               G 
Eu pego a minha bike, vou andando pelo mundo  
             F                                  G 
vejo os pássaros voando pra nenhum lugar.  
C                                E                                       F                       G 
Tenho minha chance, todos têm alguma chance de poder endoidar  
C                                    E                                           F                  G 
Eu vejo uma garota passeando com o cachorro e ela diz: "Até mais !"  
FII E D C                                    FII E D FII                            
             Por trás dos pensamentos            está um sentimento  
FII E D C                                     GII                                  FII                                         CII 
             que faz seguir em frente. Muita coisa já ficou pra trás   só que eu não quero voltar 
GII                                   FII      CII FII E GII CII FII  GII                              FII 
mas eu nunca sei pra onde ir                                         Sigo pedalando sem parar e eu não  
                 GII                                     FII                                       C G C 
vou parar, sei que ainda vou te encontrar e lembrar que foi assim. 
 
 
 

    	
fixar
fixar inscrever-se

enviado porenviado por: inruah
cifra enviadaCorrigida por: sem correções
logo top cifrasComente
ico música do artistaMúsicas deste artista
ico curtiuCurtiu?
ico destaqueDestaque
Petaxxon Comunicação Online

Cifras.com.br - Melhor e mais completo site de cifras e tablaturas do Brasil Mais de 1 milhão de acordes de músicas cadastradas desde 2003
As informações contidas no nosso site são colaborações de seus usuários e podem conter erros, sendo assim, não nos responsabilizamos sobre nenhuma destas.

close
menos
mais
close
Cor dos acordes:

Cor da letra:

close
Alinhar acordes a direita Alinhar acordes a esquerda Alinhar acordes em baixo Alinhar acordes no topo
close
  Mostrar todos os acordes Esconder acordes muito fáceis Esconder acordes fáceis Esconder acordes intermediários
redimensionar
glossário