Cifras e Tablaturas
Crowder

Crowder

Lift Your Head Weary Sinner Chains

Cifras Cancelar Versão de Impressão
cifras

Crowder - Lift Your Head Weary Sinner Chains

fixar na tela  
Exibindo: vídeo-aula ver clipes redimensionar
  
Intro (0:00 - 0:03) 

e|-----0-0-----0--0----------------------------------------------------------| 
B|-----3/5-----5--5\3p0------------------------------------------------------| 
G|-----2/4-----4-(4)-----0---------------------------------------------------| 
D|---------------------------------------------------------------------------| 
A|---------------------------------------------------------------------------| 
E|---------------------------------------------------------------------------| 
     

Riff 1 (0:03 - 0:40)          
            
e|---------------------------------------------------------------------------| 
B|---------------------------------------------------------------------------| 
G|---------------------------------------------------------------------------| 
D|-------------------5-------------------------------------------------------| 
A|--------5--7--5h7-----7--5--7-------5--7--5h7-(5)/(7)----------------------| 
E|-----0---------------------------0-------------3-/-5-----------------------| 


Riff 2 (0:54 - 1:08) 

e|--------------|-------------3-3-----|-------------|------------------------| 
B|--3/5-5-3h5-5-|-3h5-5-3-5-3-----5-5-|-3/5-5-3h5-5-|-3-3/8-8-8-8\3-3-3-3----| 
G|--------------|---------------------|-------------|------------------------| 
D|--------------|---------------------|-------------|------------------------| 
A|--------------|---------------------|-------------|------------------------| 
E|--------------|---------------------|-------------|------------------------| 


Riff 3 (2:07-3:02) 
       C Major        D Major         E Minor          
e|----------------|---------------|---------------|--------------------------| 
B|----------------|---------------|---------------|--------------------------| 
G|-------0--------|------0--------|------0--------|------0-------------------| 
D|----2-----2---2-|---4-----4---4-|---5-----5---5-|---5-----5---5------------| 
A|--3---3-----3---|-5---5-----5---|-7---7-----7---|-7---7-----7--------------| 
E|----------------|---------------|---------------|--------------------------| 

I like to use different chord voicing for the verse, Chorus and bridge because it is a three chord song.  
It creates variety. It also helps to have different chord voicings when you have two guitarist playing. 

      Verse        Chorus          Bridge 
    Em  C   D     Em  C   D     Em    C     D 
e|- X - X - X -|- 0 - 0 - 0 -|- X -|- X -|- X -| 
B|- X - X - X -|- 0 - 0 - 0 -|- 0 -|- 0 -|- 0 -| 
G|- X - 5 - 7 -|- 9 - 5 - 7 -|- 0 -|- 0 -|- 0 -| 
D|- 2 - 5 - 7 -|- 9 - 5 - 7 -|- 5 -|- 2 -|- 4 -| 
A|- 2 - 3 - 5 -|- 7 - 3 - 5 -|- 7 -|- 3 -|- 5 -| 
E|- 0 - X - X -|- 0 - X - X -|- 7 -|- 3 -|- 5 -| 
 
  

cifra enviadasem correções
enviado porenviada por:jov-correa
top 5 | crowder
top rock'n roll
Outras músicas do artista letras do(a) Crowder
Top cifras »Top artistas »
Petaxxon Comunicação Online
Cifras.com.br - Melhor e mais completo site de cifras e tablaturas do Brasil
Mais de 1 milhão de acordes de músicas cadastradas desde 2003
As informações contidas no nosso site são colaborações de seus usuários e podem conter erros, sendo assim, não nos responsabilizamos sobre nenhuma destas.
close
menos
mais
close
Cor dos acordes:

Cor da letra:

 

save
close
close
 
redimensionar