Cifras e Tablaturas
Crywolf

Crywolf

122516 Untitled Christmas Song

Cifras Cancelar Versão de Impressão

Crywolf - 122516 Untitled Christmas Song

Tom: G

  			Chord Formations 

     G     Cadd9     Em7     Em9(5th Fret) 
e|---0-------0--------0-------0--| 
B|---3-------3--------3-------5--| 
G|---0-------0--------0-------0--| 
D|---0-------2--------2-------4--| 
A|---2-------3--------2-------5--| 
E|---3-------x--------0-------x--| 



Intro 
e|----------------------------------0-------------------------------------------| 
B|--------3------------3-------------------------5------------3------------3----| 
G|----0-----0------0-----0------0-----0------0-----0------0-----0------0-----0--| 
D|------------------------------------------------------------------------------| 
A|--3---3--------3---3--------7---7--------5---5--------3---3--------3---3------| 
E|------------------------------------------------------------------------------| 

e|----------------------------------0----------------| 
B|--------7------------5----------------------3------| 
G|----0-----0------0-----0------0-----0---0-----0----| 
D|---------------------------------------------------| 
A|--7---7--------5---5--------3---3-----3---3-----3--| 
E|---------------------------------------------------| 

verse 1 
  Did it get colder this year? 
e|----------------------------------------------------| 
B|--------3------------3------------7------------5----| 
G|----0-----0------0-----0------0-----0------0-----0--| x2 
D|----------------------------------------------------| 
A|--3---3--------3---3--------7---7--------5---5------| 
E|----------------------------------------------------| 

e|----------------------------------------------------| 
B|--------3------------3------------3------------5----| 
G|----0-----0------0-----0------0-----0------0-----0--| 
D|----------------------------------------------------| 
A|--3---3--------3---3---------------------5---5------| 
E|----------------------------0---0-------------------| 
   
e|-------------------------------------------------------------------------0----| 
B|--------3------------3------------7------------5------------3-----------------| 
G|----0-----0------0-----0------0-----0------0-----0------0-----0------0-----0--| 
D|------------------------------------------------------------------------------| 
A|--3---3--------3---3--------7---7--------5---5--------3---3--------3---3------| 
E|------------------------------------------------------------------------------| 

Chorus 

     G                                 Cadd9 
But it doesn't snow here in Los Angeles 
G                                                     Cadd9 
Abandoned roads... but they're warm; I'm just losing it 
G                                                     Cadd9 
Everyone's flown back to sweet places they call their homes 
    Em7                  Em9                          Cadd9 
But I wander aimlessly, can't shake this chill from my bones 


verse 2 
  Where could I go to feel home, when my home was you? 
e|--------------0---------------------------------------------------------0--| 
B|--------3-------3-----------3-----------5-----------3---------3------------| 
G|----0-----0-------0-----0-----0-----0-----0-----0-----0---0-----0---0------| x3 
D|---------------------------------------------------------------------------| 
A|--3---3-----3---------------------5---5-------3---3-----3---3-----3---3----|  
E|----------------------0---0------------------------------------------------| 
  But where could I go? Darling, you took my whole world with you... 
e|--------------------------------------------------------------0---------0--| 
B|--------3----------3----------5----------5----------3---------3---------3--| 
G|----0-----0----0-----0----0-----0----0-----0----0-----0---0-----0---0-----0| 
D|---------------------------------------------------------------------------| 
A|------------------------5---5------5---5------3---3-----3---3-----3---3----| 
E|--0---0------0---0---------------------------------------------------------| 
   
e|--------0---------------------0---------0---------0---| 
B|--------3-----------3---------3---------5---------0h5-| 
G|----0-----0-----0-----0---0-----0---0-----0---0-------| 
D|------------------------------------------------------| 
A|--3---3---------------------------5---5-----5---5-----| 
E|--------------0---0-----0---0-------------------------| 

e|--------0----------0----------0--------0--------0---------0----| 
B|--------0h3--------0h3--------0h3------3--------0h7-------7----| 
G|----0----------0----------0--------0--------0---------0--------| 
D|---------------------------------------------------------------| 
A|--3---3------3---3------3---3----3---3----7---7-----7---7------| 
E|---------------------------------------------------------------| 

e|--------0----------0-------------------------------------------| 
B|--------0h5-------------------3----------3---------3-----------| 
G|----0----------0-----0----0-----0----0-----0---0-----0---------| 
D|---------------------------------------------------------------| 
A|--5---5------5---5------3---3------3---3-----3---3------3------| 
E|---------------------------------------------------------------| 
  But where could I go? Darling, you took my whole world with you... 
e|--------------------------------------------------------------------| 
B|-------7----------7----------5----------5----------3---------3------| 
G|----0----0----0-----0----0-----0----0-----0----0-----0---0-----0----| 
D|--------------------------------------------------------------------| 
A|--7---7-----7---7------5---5------5---5-----3----3-----3---3-----3--| 
E|--------------------------------------------------------------------| 

************************************ 

| x   Dead note 
| h  hammer-on 

************************************ 
    	
fixar
fixar inscrever-se

enviado porenviado por: carlluz
cifra enviadaCorrigida por: sem correções
logo top cifrasComente
ico música do artistaMúsicas deste artista
ico curtiuCurtiu?
ico destaqueDestaque
Petaxxon Comunicação Online

Cifras.com.br - Melhor e mais completo site de cifras e tablaturas do Brasil Mais de 1 milhão de acordes de músicas cadastradas desde 2003
As informações contidas no nosso site são colaborações de seus usuários e podem conter erros, sendo assim, não nos responsabilizamos sobre nenhuma destas.

close
menos
mais
close
Cor dos acordes:

Cor da letra:

close
Alinhar acordes a direita Alinhar acordes a esquerda Alinhar acordes em baixo Alinhar acordes no topo
close
  Mostrar todos os acordes Esconder acordes muito fáceis Esconder acordes fáceis Esconder acordes intermediários
redimensionar
glossário