Cifras e Tablaturas
Dan Salvato

Dan Salvato

Sayo-nara

Cifras Cancelar Versão de Impressão
cifras

Dan Salvato - Sayo-nara

fixar na tela  
Exibindo: vídeo-aula ver clipes redimensionar

Tom:

  Riff 1 

E|--------3-----------0-----------------------------| 
B|-----5-----5-----1-----1--------1-----------3-----| 
G|--5-----------2--------------2-----2-----4-----4--| 
D|--------------------------3-----------5-----------| 
A|--------------------------------------------------| 
E|--------------------------------------------------| 

Riff 2 

E|--3-----1--------------------------5--3--| 
B|-----5-----3--5-----3--------------------| 
G|-----------------5-----2--0--------------| 
D|-----------------------------3--3--------| 
A|-----------------------------------------| 
E|-----------------------------------------| 
  

top 5 | dan salvato
top rock'n roll
Outras músicas do artista letras do(a) Dan Salvato
Top cifras »Top artistas »
Petaxxon Comunicação Online
Cifras.com.br - Melhor e mais completo site de cifras e tablaturas do Brasil
Mais de 1 milhão de acordes de músicas cadastradas desde 2003
As informações contidas no nosso site são colaborações de seus usuários e podem conter erros, sendo assim, não nos responsabilizamos sobre nenhuma destas.
close
menos
mais
close
Cor dos acordes:

Cor da letra:

 

save
close
close
 
redimensionar