Cifras e Tablaturas
Dance of Days

Dance of Days

Os Funerais Do Coelho Branco

Cifras Cancelar Versão de Impressão
cifras

Dance of Days - Os Funerais Do Coelho Branco

fixar na tela  
Exibindo: vídeo-aula ver clipes redimensionar
  
  e|------------------------------------------------------------------------------  
  B|------------------------------------------------------------------------------  
  G|-----------12-10--9--7--7--7--9--7---------------12-10--9--7--7--7--9--7------ 
  D|-10-10-10---------------------------10--7--7--7---------------------------10-- 
  A|------------------------------------------------------------------------------  
  D|------------------------------------------------------------------------------  

    -------------------------------------------------------------| 
    -------------------------------------------------------------| 
    -----------12-10--9--7--7--7--9--7---------10--9-----7--5----| 
    -10-10-10---------------------------10------------5----------| 
    ----------------------------------------8--------------------| 
    -------------------------------------------------------------|

   RIff 1: 

  e|----------------------------------------------------------------|  
  B|----------------------------------------------------------------|  
  G|---------------------9-12--7------------------------9-12--------| 
  D|--10-10-10-12-10-12-----------12-10-12-10-12-12-12-------12-----| 
  A|----------------------------------------------------------------| 
  D|----------------------------------------------------------------|   
  

top 5 | dance of days
top
Outras músicas do artista letras do(a) Dance of Days
Top cifras »Top artistas »
Petaxxon Comunicação Online
Cifras.com.br - Melhor e mais completo site de cifras e tablaturas do Brasil
Mais de 1 milhão de acordes de músicas cadastradas desde 2003
As informações contidas no nosso site são colaborações de seus usuários e podem conter erros, sendo assim, não nos responsabilizamos sobre nenhuma destas.
close
menos
mais
close
Cor dos acordes:

Cor da letra:

 

save
close
close
 
redimensionar